Song name
# A B C D E F G H I J K L M N O P Q R S T U V W X Y Z

Los Lobos - We Belong Together tab

Intro:
      F              F        Dm        Gm         C
e|---/4-4-4----------------------------------------------------------|
b|---/6-6-6--6--4----------------------------------------------------|
g|---------------6--------0-2---------------------------------------|
d|------------------3---3-----0---0-2-3-3/5---5-3-0--------0-2-3----|
a|--------------------------------------------------3---3-----------|
E|------------------------------------------------------------------|

Verse Riff:
 F         Dm         Gm        C
e|--------------------------------------------------|
b|--------------------------------------------------|
g|-------0-2----------------------------------------|
d|-3---3-----0---0-2-3-3/5---5-3-0--------0-2-3---3-| (repeat)
a|---------------------------------3---3------------|
E|--------------------------------------------------|

Verse 1
         F   Dm  Gm             C      F       Dm  Gm
You're mine........... and we belong together.
          C      F      Dm  Gm
Yes we belong together.
     C     F    Dm   Gm   C  
For eternity
Verse 2
         F  Dm   Gm               C        F   Dm  Gm
You're mine.......... your lips belong to me.
           C        F     Dm   Gm
Yes they belong to me.
    C     F    Dm  F7  C

fill 1:
 F         Dm         F7        C
e|--------------------------------------------------|
b|--------------------------------------------------|
g|-------0-2-3---3-2-0------------------------------|
d|-3---3---------------3---3-2-0--------------------|
a|-------------------------------3------------------|
E|--------------------------------------------------|

Bridge:
Shuffle
       Bb         Bbm
You're my.....my baby
    F
and you'll al al always be (fill 2)
  Bb              Bbm
I swear by everything I own,
       G7                C
You'll always, always be mine (fill 3)

fill 2:
e|--------------------------------------------------|
b|--------------------------------------------------|
g|--10^-10--8---------------------------------------|
d|-------------10--8--5-4-3-5-3-1-------------------|
a|--------------------------------3-----------------|
E|--------------------------------------------------|

fill 3:
e|--------------------------------------------------|
b|--------------------------------------------------|
g|--8--8--8---6-6-6---5-5-5---3-3-3-----------------|
d|-10-10-10---8-8-8---7-7-7---5-5-5-----------------|
a|--------------------------------------------------|
E|--------------------------------------------------|

Verse 3
         F   Dm  Gm             C      F       Dm  Gm
You're mine........... and we belong together.
          C      F      Dm  Gm
Yes we belong together.
     C     F    
For eternity
   Bb
Etern....
   F
Eternity

i couldn't find a decent tab for this song
so I looked around and found this one.

 
credit for this tabs goes to Kellan Quinn
Tap to rate this tab
# A B C D E F G H I J K L M N O P Q R S T U V W X Y Z