Song name
# A B C D E F G H I J K L M N O P Q R S T U V W X Y Z

Los Lobos - Cancion Del Mariachi tab

			     SONG NAME Cancion Del mariachi
-------------------------------------------------------------------------------
Tabbed by: Joe
Email:Gutierrezjoe35@yahoo.com for anything you need just email me

Tuning:
 Intro to the song the the mariachi plays
e|------------------------------------------0--0-------------------------------|
B|----------------------------------0-0-1-0-0--0-0-----------------------------|
G|----------------------------------0-0-2-0-0--0-0-0---2--------------2---2--2-|
D|--------------------------------2----------------2---4----------4---4---4--4-|
A|-2-3--0-2---0-----------------2------------------------------2---------------|
E|----------3---2--3---0------0------------------------------------------------|
                                                       Intro
e|-------------------------------------------------0-------7--7---7-7---8---7--|
B|-0-----1----1--0---0-----------------------------0------8---8---8-8---10--8--|
G|-0--2--2---------0----2-----2--0---0----------0--0-----9--------------------9|
D|----4-------------------4-------2----4--1--4-----2----9----------------------|
A|-------------------------------------------------2---------------------------|
E|-------------------------------------------------0---------------------------|

e|-8--7---7------5-----5-5-----5-5----7-5----5-5-7----5-5---2-3--------------|
B|-10-8---8------7-----7-7-----7-7----8-7----7-7-8----7-7---4-5--------------|
G|----------9------8---------------------------------------------------------|
D|---------------------------------------------------------------------------|
A|---------------------------------------------------------------------------|
E|---------------------------------------------------------------------------|
    Verse for guitar no.1
e|---------7--|--8-7-----------|-------8-7--------8-7-|-7------8-7-------------|
B|-------7----|------10-8-7----|-7-10-------7-10------|---7-10-----------------|
G|-----8------|-------------9--|----------------------|------------9-----------|
D|---9--------|----------------|----------------------|------------------------|
A|------------|----------------|----------------------|------------------------|
E|------------|----------------|----------------------|------------------------|
  Chorus AY,ay,ay
e|-8-5-0---8-5-8-7---7-7---7--5---5-5----5-------------8-5-0-8-5-8-7---------|
B|-----------------8-----8------7------8----8-5-8-5-8----------------8-------|
G|---------------------------------------------------------------------------|
D|---------------------------------------------------------------------------|
A|---------------------------------------------------------------------------|
E|---------------------------------------------------------------------------|
                                   Interlude
e|-7-7-5-7---5-----5-------------|-7-7--7-7--8--7--7----8--7--7----5---------|
B|-------------7-8---8-7-5-----8-|-8-8--8-8--10-8--8----10-8--8----7------7--|
G|---------------------------9---|-------------------9----------9-------8----|
D|-------------------------------|-------------------------------------------|
A|-------------------------------|-------------------------------------------|
E|-------------------------------|-------------------------------------------|
                            Verse
e|-5-5---5-5-5-7---5-5---5-|-7-5--5-2-3---0--------7-7---7-7-7-7---7-7---------|
B|-7-7---7-7-7-----7-7---7-|-8-7--7-4-5-----0------7-7---7-7-7-7---7-7---------|
G|-------------------------|------------------0----8-8---8-8-8-8---8-8---------|
D|-------------------------|--------------------2------------------------------|
A|-------------------------|---------------------------------------------------|
E|-------------------------|---------------------------------------------------|

e|-7------------------8-7--------7----7--------7---7-------------------------|
B|---8------8-------------8---8----8----8------------8-7-5-------------------|
G|-----9----------9---------9--------9----9--8-------------8-6-4---4-4-------|
D|--------9------------------------------------------------------------2-----|
A|---------------------------------------------------------------------------|
E|---------------------------------------------------------------------------|
 Solo
e|-----------------12------------------11----------------11------------------|
B|--5---12---8--12----12---8-12--0--12----12-10-12-0-12-----12-10-12-0-12----|
G|---------------------------------------------------------------------------|
D|---------------------------------------------------------------------------|
A|---------------------------------------------------------------------------|
E|---------------------------------------------------------------------------|

e|-12--------------12---------------11-------------11------------------------|
B|----12-8-12-0-12----12-8-12-0-12-----12-10-12-0-----10-12-0----10-12-------|
G|---------------------------------------------------------------------------|
D|---------------------------------------------------------------------------|
A|---------------------------------------------------------------------------|
E|---------------------------------------------------------------------------|

e|---12--------12---------12------10----10-8----8-7---7-5---7-3---3-2---2----|
B|-0----8-12-0----8-12-0-----8-12----12------10-----8-----7-----5-----3------|
G|---------------------------------------------------------------------------|
D|---------------------------------------------------------------------------|
A|---------------------------------------------------------------------------|
E|---------------------------------------------------------------------------|

e|-0---0---------------------------------------------------------------------|
B|---3---3-0-1----0---0---0--1-0-----------------------0-0--4-5-7--0-0--5-7-8|
G|----------------------2--------2-0---2-0-----------------------------------|
D|-----------------------------------4-----4-2-0-----------------------------|
A|-----------------------------------------------3-2-------------------------|
E|---------------------------------------------------------------------------|
                                Verse
e|--------------7--5--3--2--0-|-7-8-7-------------7--(7)--7--7------8-7--------|
B|-0-0--4-5-7-0---------------|-------10-7---------------------8-10------------|
G|--------------8--6--4--2--0-|------------8-----------------------------------|
D|----------------------------|--------------7---------------------------------|
A|----------------------------|------------------------------------------------|
E|----------------------------|------------------------------------------------|
               Chorus
e|-7----------|-8----8-7----7--5---5--7-----7--------8----8--------7--7--------|
B|---8--------|---10--------8------7--------8----10--10---10----8--8--8--------|
G|-----8-11-9-|-----------9------8--------9----9--------------9----------------|
D|------------|----------------------------------------------------------------|
A|------------|----------------------------------------------------------------|
E|------------|----------------------------------------------------------------|

e|------5--5-------7--7------8---8------7--7----5--5----7--7----8---8--------|
B|---4--4--4----8--8--8------10--10-----8--8----7--7----8--8----10--10-------|
G|-4-----------9----------9----------9--------8-------9-------9--------------|
D|---------------------------------------------------------------------------|
A|---------------------------------------------------------------------------|
E|---------------------------------------------------------------------------|
                    The end
e|---7--7----5--5-|-12-12-12-12-12-12-12-12- play till the end of song-------|
B|---8--8----7--7-|----------------------------------------------------------|
G|-9--------8-----|----------------------------------------------------------|
D|----------------|----------------------------------------------------------|
A|----------------|----------------------------------------------------------|
E|----------------|----------------------------------------------------------|


************************************

| /   slide up
| \   slide down
| h   hammer-on
| p   pull-off
| ~   vibrato
| +   harmonic
| x   Mute note
| b   Bend
| pb  Pre-bend
| br  Bend release
| pbr Pre-bend release
| brb Bend release bend
Tap to rate this tab
 
# A B C D E F G H I J K L M N O P Q R S T U V W X Y Z