Song name
# A B C D E F G H I J K L M N O P Q R S T U V W X Y Z

Los Lobos - Will The Wolf Survive tab

This riff repeats throughout the song

G                C             G               C               G
:---------------:-------------:---------------:--------------:---|
:---------------:-------------:---------------:--------------:---|
:-0---4-2-0---0-:-----0-----0-:-0---4-2-0---0-:-----0-/542---:-0-|
:-0---------2---:-0h2---0h2---:-0---------2---:-0h2---/542---:-0-|
:---------------:-------------:---------------:--------------:---|
:---------------:-------------:---------------:--------------:---|


There's also a walk downs from the D to the C chord in the intro
And from the C to the G chord several times in the song

 D               C                   C              G
:--------------:-0------------:    :--------------:-------------:
:------3-2-0---:-1------------:    :------1-0---0-:-------------:
:------------2-:-0------------:    :----------2---:-0-----------:
:--------------:--------------:    :--------------:-0-----------:
:--------------:--------------:    :--------------:-------------:
:--------------:--------------:    :--------------:-------------:
Tap to rate this tab
 
# A B C D E F G H I J K L M N O P Q R S T U V W X Y Z