Song name
# A B C D E F G H I J K L M N O P Q R S T U V W X Y Z

Los Lobos - Rango Theme tab



                       RANGO MOVIE INTRO THEME TAB





Tuning: E standard

Chords: Mostly F#m with occaisonal D and some other chord I can't figure out in the low 
"RANGOOoooOoOOO..." part. Please feel free to comment especially if you know the chord I 
couldn't figure out. Thanks!




Tabbed by Kaijis




------------------------------------------------------------------------


F#m muted galloping for the beginning



At about 0:30 into the movie (time of the nickelodeon logo)

e------------------------------------|
B------------------------------------|
G------------------------------------|
D------------------------------------|
A------------------------------------|
E--4^~~p0h2~~------------------------|




e----------------------------------------------------------------------------|
B----------------------------------------------------------------------------|
G----------------------------------------------------9-11---9----------------|
D--------6-7---9/11--7--------------6-7--9/11~~~~~~------------11---9h11h12--|
A--7-9------------------9-----7-9--------------------------------------------|
E----------------------------------------------------------------------------|



e----------------------------------------------------------------------------|
B----------------------------------------------------------------------------|
G--------------------9-------------------------------------------------------|
D--7------------------------11-----------------------------------------------|
A-----9------11-12------11------12p11p9--------------------------------------|
E----------------------------------------------4^~~p0h2~~--------------------|


Chords after that:

D                               F#m
  RANGOOOOOO!!                       rangooooooo

D                               F#m                     ???(chord)
  RANGOOOOOO!!!                      rangoooooooooooooooooOOOooooOOOO








************************************

| /   slide up
| \   slide down
| h   hammer-on
| p   pull-off
| ~   vibrato

************************************
Tap to rate this tab
# A B C D E F G H I J K L M N O P Q R S T U V W X Y Z