Song name
# A B C D E F G H I J K L M N O P Q R S T U V W X Y Z

Los Lobos - Cumbia Raza tab

                                            Cumbia Raza Intro
                                                Los Lobos
                                                This Time


    Gm                   Dm                  A7               Dm
|-9/10-----------10----|-------------------|----------------|-------------------|
|--------11---------11-|---------10--------|---------10-----|---------10--------|
|-----------12---------|------10-----10----|------12-----12-|------10-----10----|
|----------------------|-12-------------12-|-11-------------|-12-------------12-|
|----------------------|-------------------|----------------|-------------------|
|----------------------|-------------------|----------------|-------------------|

    Gm                   Dm                  A7               Dm
|-9/10-----------10----|-------------------|----------------|-------------------|
|--------11---------11-|---------10--------|---------10-----|---------10--------|
|-----------12---------|------10-----10----|------12-----12-|------10-----10----|
|----------------------|-12-------------12-|-11-------------|-12-------------12-|
|----------------------|-------------------|----------------|-------------------|
|----------------------|-------------------|----------------|-------------------|
Tap to rate this tab
# A B C D E F G H I J K L M N O P Q R S T U V W X Y Z