Song name
# A B C D E F G H I J K L M N O P Q R S T U V W X Y Z

Los Lonely Boys - Desperado tab

-------------------------------------------------------------------------------
			     Los Lonely Boys - Desperado
-------------------------------------------------------------------------------
Tabbed by: mr.cheetah
Email: adameke@orange.pl

It's my first tab i love this song so i hope u'll like it :P
I must listen to the song to know how to play it right and how fast to play it.
Tuning: eBGDAE (acoustic guitar)

Em:

e|--0---|
B|--0---|
G|--0---|
D|--2---|
A|--2---|
E|--0---|

B7:

e|--2---|
B|--0---|
G|--2---|
D|--1---|
A|--2---|
E|------|

Am:

e|--0---|
B|--1---|
G|--2---|
D|--2---|
A|--0---|
E|------|

  Intro:    
e|------7-7--7-7--8-7--7---8-7-7---5--|---5-5--5-5-7-5--5-5-7-5------------|
B|----8-8-8--8-8--8-8--8---8-8-8---7--|---7-7--7-7-7-7--7-7-7-7-7-8--------|
G|---9-------------------9-------9----|-----------------------8-9----------|
D|--9---------------------------------|------------------------------------|
A|------------------------------------|------------------------------------|
E|------------------------------------|------------------------------------|

Verse:
    Em     E7
e|--0---|--2---|
B|--0---|--0---|
G|--0---|--2---|
D|--2---|--1---|
A|--2---|--2---|
E|--0---|------|

Chorus:
    Am     Em     E7     Em
e|--0---|--0---|--2---|--0---|
B|--1---|--0---|--0---|--0---|
G|--2---|--0---|--2---|--0---|
D|--2---|--2---|--1---|--2---|
A|--0---|--2---|--2---|--2---|
E|------|--0---|------|--0---|

And it's go like this

Intro
Verse
Chorus
Intro
Verse
Chorus
Solo (i didn't write it cause i'm still working on it)
Chorus

Hope u enjoyed it :)
Tap to rate this tab
 
# A B C D E F G H I J K L M N O P Q R S T U V W X Y Z