Los Lonely Boys - Onda tab

                      "Onda" Los Lonely Boys
Intro
Standerd tuning
E-----------------------------------------------------|
B-----------------------------------------------------|
G---5--6--8-8-8~-------5--6--8-8-8~------5--6--8-8-8b-|
D-8------------------8-----------------8--------------|
A-----------------------------------------------------|
E-----------------------------------------------------|...


Then I use this scale to play the rest of the song. I don't mean that you have to hear 
it a transcripet it... just use this scale to impervise.

E--------------------------------6--8--9--11--13--16-|
B------------------------6--7--9---------------------|
G----------------5--6--8-----------------------------|
D-----------6--8-------------------------------------|
A---4--6--8------------------------------------------|
E-6--------------------------------------------------|

Thank you... please rate,comment!
Tap to rate this tab
 
# A B C D E F G H I J K L M N O P Q R S T U V W X Y Z