Song name
# A B C D E F G H I J K L M N O P Q R S T U V W X Y Z

Los Lonely Boys - La Contestacion tab

Los Lonely Boys
La Contestacion
Transcribed by Soch H.
Tuning: (Eb Ab Db Gb Bb Eb) Half step Down

Guitar Solo: (1:34)
|---------------------------------------------------------|
|---------------------------------------------------------|
|-9s11---9--9s=7----7-6--6s7\--4----11s9-9s7-7s9-9s11-11--|
|---------------------------------------------------------|
|---------------------------------------------------------|
|---------------------------------------------------------|

|---------------------------------------------------------|
|-10b=12r11---10b12-10---------------------8p7------------|
|----------------------9b11-9p7-7--9-----7-----7-7~-------|
|---------------------------------------------------------|
|---------------------------------------------------------|
|---------------------------------------------------------|

|---------------------------------------------------------|
|---10--8-7-----------------------------8p7---------------|
|-7---------7--------------7----------7--------7----------|
|-------------7--5--4h5p4-----------7--------7------------|
|-------------------------------7s9-----------------------|
|---------------------------------------------------------|
Tap to rate this tab
# A B C D E F G H I J K L M N O P Q R S T U V W X Y Z