Song name
# A B C D E F G H I J K L M N O P Q R S T U V W X Y Z

Los Lonely Boys - I Never Met A Woman tab

-------------------------------------------------------------------------------
	               I Never Met a Woman - Los Lonely Boys
-------------------------------------------------------------------------------
Tabbed by: JohnnyC2812
Email: jclemow@patmedia.net

Tuning: Normal

e|--------3-------------------------------------------------------------|
B|-4------4--6----3-3-------X---3h4h3-----3-6--3------------------------|
G|-0---------5----4-4-------X---------4---0-4---------------------------|
D|-5--5------6----3-3-------X---5---------------------------------------|
A|-3---------5----5-5-------X-------------------------------------------|
E|----------------3-3-------X-------------------------------------------|

e|-------------3-3---3-3---------3---3----3-----------------------------|
B|-4----4-6----3-3---3-3---6-----3---4----4--6-----6---3-3--------------|
G|------0-5----4-4---4-----5-----4---5-5-----5-----5---4-4--------------|
D|---5----6----3-3---------6-----3---5-------6-6-------3-3--------------|
A|-3------5----5-5---------5-----------------5---------5-5--------------|
E|-------------3-3-------------------------------------3-3--------------|

This is my first tab so sorry that the spacing is weird. It's only the intro but it's a 
song... anybody else know the rest? If you do comment back with a link or email it to me 
jclemow@patmedia.net. Enjoy and feedback is appreciated.

| /  slide up
| \  slide down
| h  hammer-on
| p  pull-off
| ~  vibrato
| +  harmonic
| x  Mute note
Tap to rate this tab
 
# A B C D E F G H I J K L M N O P Q R S T U V W X Y Z