Song name
# A B C D E F G H I J K L M N O P Q R S T U V W X Y Z

Los Mojarras - Triciclo Peru tab

esta es el riff del intro del triciclo peru para todos los que buscavan y no la 
, esta facil , pronto la pongo completa con bajo y con la otra guitarra , esta es de parte de 
urbina =)

/ = slide up  , todo el riff se repite 2 veces

|-----------10-12-10-------------10-12-10-------|
|--10-10-13---------13-10--10-13-----------13---|
|-----------------------------------------------|
|-----------------------------------------------|
|-----------------------------------------------|
|-----------------------------------------------|

|-----------------------------------------------|
|--------10-12--13--12-10------10-12--13--12-10-|
|--10-10------------------10-10-----------------|
|-----------------------------------------------|
|-----------------------------------------------|
|-----------------------------------------------|

|------------10----------------10-------|
|-------12-13---13-12-----12-13---13-12-|
|--12-12-------------12-12--------------|
|---------------------------------------|
|---------------------------------------|
|---------------------------------------|

|-------------------------------------------------|
|-----12-/13-11-12-14-14-14-14-14-14-14-14-14-----|
|--10-----------------------------------------/12-|
|-------------------------------------------------|
|-------------------------------------------------|
|-------------------------------------------------|

bueno ese es todo el intro de triciclo peru ( / = slide up ) espero que les sirva 
consulta me escriben a diablo28_2@hotmail.com =)
Tap to rate this tab
# A B C D E F G H I J K L M N O P Q R S T U V W X Y Z