Song name
# A B C D E F G H I J K L M N O P Q R S T U V W X Y Z

Los Mox - Ella Me Chupo Las Bolas tab

Help us improve GuitareTab! Take a short survey!
Band: Los Mox
Song: Ella me chupo las bolas
tabbed by Cocox2	
cocofuhgawz@hotmail.com


Intro
|-/12-12-12-10-12-10-8-8-7-8-7-5-7-5-4-5-4-2-4-2-1-2-1-------------| 
|------------------------------------------------------5-3-2-1-0-3-| 
|------------------------------------------------------------------| 
|------------------------------------------------------------------| 
|------------------------------------------------------------------| 
|------------------------------------------------------------------| 


Verse (play when Macuco is singing)
|--------------------------------------|
|--------------------------------------|
|--------------------------------------|
|--7-7-7-7-7-7-7-7--4-4-4-4-4-4-4-4----|
|--7-7-7-7-7-7-7-7--4-4-4-4-4-4-4-4----|
|--5-5-5-5-5-5-5-5--2-2-2-2-2-2-2-2----|


End
|---------------------------------------------------------------------| 
|-------4-5-6-8-6-5-6-5-1-8-8-6p7-6-6-4p5-4-3-4-4-3-1-4-6-6-4-8-6-5-4-| 
|-3-4-5---------------------------------------------------------------| 
|---------------------------------------------------------------------| 
|---------------------------------------------------------------------| 
|---------------------------------------------------------------------|



LYRICS:

El otro día fui a una fiesta 

y conocí una lola 

me gustó y le pedí que me chupara las bolas 

ella accedió y me las chupó.
Related for Ella Me Chupo Las Bolas tab