Los Ninos Estelares - Deja El Carro chords

Highlighted       Show chord diagrams
-------------------------------------------------------------------------------
			     Deja el carro - Los Ninos Estelares
-------------------------------------------------------------------------------
Tabbed by: Supercheria


PUEDEN BAJAR NUESTRA MUSICA AQUI GRATIS:
http://www.losninosestelares.com/

Letra - Fernando Castro - Alvarez y Dario Constain Reyes
Musica - Dario Constain Reyes y Fernando Castro - Alvarez
Album - La dictadura cientifica acaba de empezar

************************************

| /   slide up
| \   slide down
| h   hammer-on
| p   pull-off
| ~   vibrato
| +   harmonic
| x   Mute note
| b   Bend
| pb  Pre-bend
| br  Bend release
| pbr Pre-bend release
| brb Bend release bend

************************************

ACORDES:

C = {x 3 2 0 1 0}
Dm = {x x 0 2 3 1}
Bsus4#5 = {x x x 4 5 3}
Asus4#5/D = {x x x 7 6 5}
Bsus4#5/E = { x x x 9 8 7}
G = {3 5 5 6 5 5}

Intro:

e|-------5----------7-5----------------7-5--------5--------|
B|------5-8-5------6---6--6h8p6h8p6---6---6------5--8------|
G|---5--------5---7------------------7-----7---5------5----|
D|---------------------------------------------------------|
A|---------------------------------------------------------|
E|---------------------------------------------------------|

C
Deja el carro, llega a pie

Usa guagua, coge el tren
Dm
Corre bici, corre skate

Veras que llegas en un dos por tres

C
Evita el tapon, evita el estres

Evita Peron, las luces tambien
Dm
Ningun bloqueo, ningun peaje

Ningun oficial mandando a que te bajes

Bsus4#5      Asus4#5/D
Tercer verso igual quel primero

Bsus4#5/E                  Asus4#5/D
decidimos repetirlo porque esta bien bueno (Wu!)

C
Deja el carro, llega a pie

Usa guagua, coge el tren
Dm
Corre bici, corre skate

Veras que llegas en un dos por tres

C
Distancias largas yo entiendo

Distancias cortas no seas pendejo
Dm
Si yo puedo tu tambien

Avanza que esperas vamos muevete pal coro

Coro: G

C
Licencia vencida, marbete vencido

No quiero bregar ms con tantos permisos
Dm
No gastes mas en gasolina

Que eso del Oil Peak es una mentira

C
Te han convertido en la entra~a de auto

Te han pervertido, te han transmutado
Dm
Necesidad artificial

Esa es la ley de nuestra sociedad

Coro: G


Outro que se repite hasta que se acaba.

e|---8---8--7--5--3--5--7--7-7----------------------------------|
B|--10--10--8--6--5--6--8--8-8----------------------------------|
G|--10--10--9--7--5--7--9--9-9----------------------------------|
D|--------------------------------------------------------------|
A|--------------------------------------------------------------|
E|--------------------------------------------------------------|

Bajen su musica, y vean sus videos en youtube. QUE VIVAN LOS ESTELARES!!!
Tap to rate this tab
 
# A B C D E F G H I J K L M N O P Q R S T U V W X Y Z