Song name
# A B C D E F G H I J K L M N O P Q R S T U V W X Y Z

Los Panchos - Me Voy Al Pueblo tab

e|-----------------------|-------------------------------------------------|
B|-----------------------|-------------------------------------------------|
G|-----------------------|-------------------------------------------------|
D|-------0-3-----3-------|-------2-----2-----------------------------------|
A|-0-2-3-----3-2---3-2-2-|--2-3----3-2-----3--0--0-------------------------|
E|-----------------------|0------------------------------------------------|

e|-----------------------|-------------------------------------------------|
B|-----------------------|-------------------------------------------------|
G|-----------------------|-------------------------------------------------|
D|-------0-3-----3-------|-------2-----2-----------------------------------|
A|-0-2-3-----3-2---3-2-2-|--2-3----3-2-----3--0--0-------------------------|
E|-----------------------|0------------------------------------------------|
                            (play fast)
Tap to rate this tab
 
# A B C D E F G H I J K L M N O P Q R S T U V W X Y Z