Guitaretab - guitar tabs
Song name
# A B C D E F G H I J K L M N O P Q R S T U V W X Y Z

Los Petersellers - Uma Thurman Me Toca La Banana tab

           http://www.lospetersellers.com/

Los Petersellers - Uma Thurman me toca la banana
 
        Tab by Caranokol

    INTRO

e|-----------------------------------------|
B|-----------------------------------------|
G|---7---10-10-----------------------------|
D|---7---10-10----10--10---10-10-----------|
A|---5---8--8-----10--10---10-10-xx--------|
E|----------------8---8----8--8--xx--------|


     Bass            

G|-----------------------------------------|
D|-----------------------------------------|
A|--5---88---------------------------------|
E|-----------88--888-----------------------|

    Guitar
[ Tab from: http://www.guitaretab.com/l/los-petersellers/187544.html ]
e|-----------------------------------------|
B|-----------------------------------------|
G|---7---10-10-----------------------------|
D|---7---10-10----10--10---10-11-----------|
A|---5---8--8-----10--10---10-11-----------|
E|----------------8---8----8--9------------|
     
    Bass

G|-----------------------------------------|
D|-----------------------------------------|
A|--5---88---------------------------------|
E|-----------88--889-----------------------|


                                               
e|-------------------------------------------------------------|
B|-------------------------------------------------------------|
G|-------------------------------------------------------------|
D|-------------------3b4p3-----3b4p3---3b4p3-------------------|
A|--0000-3333--5-3-5-------5-5-------5--------5~~tremolo-------|
E|-------------------------------------------------------------|

                                                  


| /  slide up
| \  slide down
| h  hammer-on
| p  pull-off
  
  b  bend
| ~  vibrato
| +  harmonic
| x  Mute note
===============
================================================================
Advertisement will be closed in 10 seconds