Song name
# A B C D E F G H I J K L M N O P Q R S T U V W X Y Z

Los Piojos - Fantasma tab

Intro y Riff 1:
E|-----------------------------|
B|-----------------------------|
G|-----------------------------|
D|--2-2--------2-2--2----------|
A|--0-0--3-4-3-0-0--0-3-4-3-4--|
e|-----------------------------|

Riff 2:
E|-----------------------------|
B|-----------------------------|
G|--2-2--------2-2--2----------|
D|--0-0--3-4-3-0-0--0-3-4-3-4--|
A|-----------------------------|
e|-----------------------------|

Estribillo:
E|-----------------------------|
B|-----------------------------|
G|--------------5--------------|
D|--3-----7-----5-----5--------|
A|--3-----7-----3-----5--------|
e|--1-----5-----------3--------|

Riff 3:
E|-----------------------------|
B|-----------------------------|
G|-----------------------------|
D|--2-2------------------------|
A|--0-0--3-4-3-3--5------------|
e|-------------1--3------------|

Riff 4:
E|-----------------------------|
B|-----------------------------|
G|-----------------------------|
D|--2-2--2---------------------|
A|--0-0--0-3-6-5--3------------|
e|-----------------------------|
Tap to rate this tab
# A B C D E F G H I J K L M N O P Q R S T U V W X Y Z