Song name
# A B C D E F G H I J K L M N O P Q R S T U V W X Y Z

Los Piojos - Muy Despacito tab

Intro:

e:------2-------2-------2---------------2-------2-------5-------5---|
b:----------------------------------------------------0---0---0---0-|
g:----2---2---2---2---2---2---2---2---2---2---2---2-0-------0-------|
d:--0-------4-------0-------4---3---0-------4-----------------------|
a:------------------------------------------------------------------|
E:------------------------------------------------------------------|

e:------2-------2-------2-------2---------1-------3---3/5-4-5--2----|
b:----------------------------------------------------1/3-3-3--3----|
g:----2---2---2---2---2---2-------------2---2---2---2-2/4-4-4--2----|
d:--0-------4-------0-------0/2---5-4-3-------3-------3/5-5-4--0----|
a:------------------------------------------------------------------|
E:------------------------------------------------------------------|
Tap to rate this tab
# A B C D E F G H I J K L M N O P Q R S T U V W X Y Z