Song name
# A B C D E F G H I J K L M N O P Q R S T U V W X Y Z

Los Piojos - Ruleta tab

/Los Piojos
/Ruleta

   Intro and Verse
e|-2----2----0-|
B|-3----3----2-|
G|-2----4----2-|
D|-0----4----2-|
A|------2----0-|
E|-------------|
 
 Pre-Chorus
e|--------|
B|--------|
G|-1----2-|
D|-2----2-|
A|-2----2-|
E|-0----0-|

  Chorus
e|-2----0----3----2----4----------------|
B|-3----2----0----2----5----------------|
G|-2----2----0----2----4----1----2----1-|
D|-0----2----0----2----6----2----2----2-|
A|-----------2----4----4----2----2----2-|
E|-----------3----2---------0----0----0-|


 End
e|-2--|
B|-3--|
G|-2--|
D|-0--|
A|----|
E|----|

Tap to rate this tab
# A B C D E F G H I J K L M N O P Q R S T U V W X Y Z