Los Piratas - Hoy Por Ayer tab

[INTRO]
|--------------|---------------|
|--3-5---33-1-0|----3-5----33-1|
|4-----4-44-2-0|--4-----4--44-2|
|--------------|---------------|
|--------------|---------------|
|--------------|---------------|

|--------------|---------------|
|--3-5---33-1-0|----3-5----33-0|
|4-----4-44-2-0|--4-----4--44-0|
|--------------|---------------|
|--------------|---------------|
|--------------|---------------|


Cadd9                      G
Hoy todo está tan bien que nada puede estropear.
   Cadd9                    G
Las cosas que te dije ayer no son
    Cadd9
tan claras que sí son verdad
  G     D/F#   Cadd9
no puedo abandonar.


Caad9                      G
Hoy todo está tan bien que juego a no pensar,
Cadd9                        G
siempre te voy a querer de verdad.
 Cadd9
Y sé que puedo contagiar
  G  D/F#  Cadd9  G     D/F#      Cadd9   G
a toda la ciudad      sin hablar.


ESTRIBILLO:
Cadd9
Hoy entiendo lo que soy, tengo claro donde voy.
 G
Hoy ya no quiero arreglar. Hoy me he despertado.
Cadd9
Hoy lo que he dormido ayer, lo que he gastado
G              D/F#     Cadd9  G
hoy, lo que ha empezado ayer.
    D/F#    Cadd9  G
Hoy por ayer...


[Cadd9 G x2]


Cadd9                     G
Hoy todo está tan bien que nada puede estropear.
   Cadd9                     G
Las cosas que te dije ayer no son
    Cadd9
tan claras que sí son verdad
  G     D/F#   Cadd9
no puedo abandonar...





Cadd9 --> x32022
G --> 320022
D/F# --> 2x0232

Tap to rate this tab
 
# A B C D E F G H I J K L M N O P Q R S T U V W X Y Z