Song name
# A B C D E F G H I J K L M N O P Q R S T U V W X Y Z

Los Prisioneros - De Rusia Con Amor tab

Help us improve GuitareTab! Take a short survey!
Esta es la última canción de Los Prisioneros del disco 'Estadio Nacional',
es muy fácil.
Qalquier contacto de tablaturas escribanme pavelramos@hotmail.com  

|---------------------------------|
|---------------------------------|
|---------------------------------|
|-----------3-----2-1-----2-------|
|-------3-------------------2-----|
|-0-5-----5-----------------------|

|---------------------------------|
|---------------------------------|
|---------------------------1-----|
|-----------5-----4-3-----2-------|
|-------3-------------------------|
|-0-5-----5-----------------------|

|---------------------------------|
|---------------------------------|
|---2-----------------------------|
|-2-----2-------5---5---3---0-----|
|---------3-0---------------------|
|---------------------------------|

|---------------------------------|
|---------------------------------|
|---------------------------------|
|---3---2-------------------------|
|-2---------------3---------------|
|-----------0---4---5-------------|

Espero que te guste
Related for De Rusia Con Amor tab