Song name
# A B C D E F G H I J K L M N O P Q R S T U V W X Y Z

Los Saicos - El Entierro De Los Gatos tab

a todos mis compatriotas arriba Peru กกก


EL ENTIERRO DE LOS GATOS
LOS SAICOS - 1965
( ERWIN FLORES / ROLANDO CARPIO )


INTERPRETE : ERWIN FLORES




INTRO :

    E              E7          

E |------4---------------------|
B |-5~-5----5--3---3~-3—6-5-3--|
G |--------------4-----------4-|
D |----------------------------|
A |----------------------------|
E |----------------------------|
                               YAAAAAAH ก

    E              E7          

E |------4---------------------|
B |-5~-5----5--3---3~-3—6-5-3--|
G |--------------4-----------4-|
D |----------------------------|
A |----------------------------|
E |----------------------------|

    E              E7          

E |------4---------------------|
B |-5~-5----5--3---3~-3—6-5-3--|
G |--------------4-----------4-|
D |----------------------------|
A |----------------------------|
E |----------------------------|

    E                E7
HA MUERTO EL GATO MAYOR
      E               E7
( HA MUERTO EL GATO MAYOR )
    E                E7
HA MUERTO EL GATO MAYOR
      E                E7   E
( HA MUERTO EL GATO MAYOR ) YAAAAAAH


     G             E
LO LLEVAN  A ENTERRAR  YAAAAAAH
     G             E
LO LLEVAN A ENETERRAR  YAAAAAAH
 F                E 
AHORA YO HE DE MANDAR
  F             E7   E      
SERE EL GATO MAYOR AHHHHH    SAICO


    E              E7          ( 3 VECES )

E |------4----------------------|
B |-5~-5----5--3---3~-3—6-5-3---|
G |--------------4------------4-|
D |-----------------------------|
A |-----------------------------|
E |-----------------------------|

                                YAAAAAAAAH

    E                 

E |------4------------4-------|
B |-5~-5---5-3---5~-5---5-3---|
G |------------4------------4-|
D |---------------------------|
A |---------------------------|
E |---------------------------|


    E              E7          ( 3 VECES )

E |------4----------------------|
B |-5~-5----5--3---3~-3—6-5-3---|
G |--------------4------------4-|
D |-----------------------------|
A |-----------------------------|
E |-----------------------------|


    E                 

E |------4------------4-------|
B |-5~-5---5-3---5~-5---5-3---|
G |------------4------------4-|
D |---------------------------|
A |---------------------------|
E |---------------------------|

G                E
YA  EL VIEJO MURIO
G                E
YA  EL VIEJO MURIO
F               E
SERE EL GATO MAYOR
F               E7
SERE EL GATO MAYOR


    E              E7          ( 3 VECES )

E |------4----------------------|
B |-5~-5----5--3---3~-3—6-5-3---|
G |--------------4------------4-|
D |-----------------------------|
A |-----------------------------|
E |-----------------------------|


E                 E7
UN GATO NEGRO LLEGO
  E                 E7
( UN GATO NEGRO LLEGO )
E                 E7
UN GATO NEGRO LLEGO
  E                 E7
( UN GATO NEGRO LLEGO )



G                     E
LO VOY A TENER QUE MATAR
G                     E
LO VOY A TENER QUE MATAR
F                  E
AHORA YA HE DE MANDAR
F               E7
SERE EL GATO MAYOR – AHHHHH


    E              E7          ( 3 VECES )

E |------4----------------------|
B |-5~-5----5--3---3~-3—6-5-3---|
G |--------------4------------4-|
D |-----------------------------|
A |-----------------------------|
E |-----------------------------|


    E                        

E |-----4-------------4-------|-0--|
B |-5~-5---5-3---5~-5---5-3---|-0--|
G |-----------4-------------4-|-1--|
D |---------------------------|-2--|
A |---------------------------|-2--|
E |---------------------------|-0--|
Tap to rate this tab
# A B C D E F G H I J K L M N O P Q R S T U V W X Y Z