Song name
# A B C D E F G H I J K L M N O P Q R S T U V W X Y Z

Los Saicos - Cementerio tab

Help us improve GuitareTab! Take a short survey!
Los Saicos
1965

singer: Cesar Castrillon


Intro :

e |-------------------------------------|
b |-------------------------------------|
g |-------------------------------------|
D |-0--0--0-0---3-2-2-0-0---0-----------|
A |-----------------------4-------------|
E |-------------------------------------|

Dm  G  Dm  G  Dm  G  Dm

Dm          G                  Dm         G
EN EL CEMENTERIO ESTABA YO BUSCANDO UN ARCON
 Dm          G                    Dm
CUANDO VI FANTASMAS Y EN UN VIEJO NICHO ME ESCONDI

F             G
UNA CADENA SE ARRASTRO
F               G
UN ARCON SE ABRIO
F            G
Y DE EL UN MUERTO SALIO
Am               G          *
AHHHHHHHH   LA FIESTA COMENZO
G        *  G                    *
AHHHHHHHH   ERA UN CUADRO DE HORROR
G        *
AHHHHHHHH 

Dm             G                Dm          G
CUANDO EN UN CRANEO ROTO LA CERVEZA SE SIRVIO
     Dm         G            Dm           
CON LAPIDAS DE MESAS Y CON ATAUDES DE SILLON

SAICO

RIFF :

e |------------------5-8-7-5-|
b |-----6---6-8-66----------|
g |---7---7------------------|
D |--------------------------|
A |--------------------------|
E |--------------------------|

e |------------------5-8-7-5-|
b |-----6---6-8-66----------|
g |---7---7------------------|
D |--------------------------|
A |--------------------------|
E |--------------------------|


e |------------------5-8-7-5-|--------|
b |-----6---6-8-66----------|------3-|
g |---7---7------------------|--7-----|
D |--------------------------|--------|
A |--------------------------|--------|
E |--------------------------|--------|


F             G
UNA CADENA SE ARRASTRO
F               G
UN ARCON SE ABRIO
F            G
Y DE EL UN MUERTO SALIO
Am               G          *
AHHHHHHHH   LA FIESTA COMENZO
G        *  G                    *
AHHHHHHHH   ERA UN CUADRO DE HORROR
G        *
AHHHHHHHH 

Dm             G                Dm          G
CUANDO EN UN CRANEO ROTO LA CERVEZA SE SIRVIO
     Dm         G            Dm           
CON LAPIDAS DE MESAS Y CON ATAUDES DE SILLON

SAICO

*

e |--8------------------|
b |-----10-8------------|
g |----------108-------|
D |----------------108-|
A |---------------------|
E |---------------------|
Related for Cementerio tab