Guitaretab - guitar tabs
Song name
# A B C D E F G H I J K L M N O P Q R S T U V W X Y Z

Los Saicos - Intensamente tab

Los Saicos - 1966

singers - Pancho Guevara ( drummer ) & Erwin Flores ( rhythm guitar ) 


* INTRO :

e|--------------------------|---------------|
b|--------------------------|---------------|
g|---0-2-3~---2-0-2-0-------|---------------|
D|-2------------------2-0-2-|-1-1-1-1-1-1-|
A|--------------------------|-2-2-2--2-2-2-|
E|--------------------------|---------------|


 A                                             *
SI EN LAS BRAZAS ARDE EL FUEGO, EL FUEGO DEL AMOR
 A                                     *
DIME, DIME SI HAS SENTIDO LA FALTA DE MI

   G      A       C        Em
QUIERO SABER  SI HUYES DE MI
 G      A   C      B7
DIMELO YA  DIMELO TU


 A                                     *
SI LAS BRAZAS HAN DEJADO, DEJADO DE ARDER
 A                                             *
SIENTO EL FRIO , FRIO INTENSO HA CAUSA DE TU AMOR


G       A      C           Em
SE CONGELO  MI ANSIAS DE AMAR
G        A     C      B7
NO PUEDO MAS  VIVIR ASI 

Em            A
NO QUIERO VOLVER
Em            A
NO QUIERO VOLVER
Em            A    Em
NO QUIERO VOLVER
[ Tab from: http://www.guitaretab.com/l/los-saicos/180981.html ]
e|--------------------------|---------------|
b|--------------------------|---------------|
g|---0-2-3~---2-0-2-0-------|---------------|
D|-2------------------2-0-2-|-1-1-1-1-1-1-|
A|--------------------------|-2-2-2--2-2-2-|
E|--------------------------|---------------|

WUAUUU 

RIFF

e|---------------------------|-0-3-5-6-5-3-5-3-------------|
b|-2-0-2-0-2-0-2-0-2-0-2-0-3-|-----------------5-3-5-------|
g|-2-0-2-0-2-0-2-0-2-0-2-0-3-|-----------------------5H4-0-|
D|---------------------------|-----------------------------|
A|---------------------------|-----------------------------|
E|---------------------------|-----------------------------|





e|---------------------------|-0-3-5-6-5-3-5-3--------2~-|
b|-2-0-2-0-2-0-2-0-2-0-2-0-3-|-----------------5-3-5--0~-|
g|-2-0-2-0-2-0-2-0-2-0-2-0-3-|------------------------2~-|
D|---------------------------|------------------------1~-|
A|---------------------------|------------------------2~-|
E|---------------------------|---------------------------|


G       A      C           Em
SE CONGELO  MI ANSIAS DE AMAR
G        A     C      B7
NO PUEDO MAS  VIVIR ASI 

Em             A
  NO QUIERO VOLVER
Em             A
  NO QUIERO VOLVER
Em             A    Em
  NO QUIERO VOLVER


e|----------|--0--|
b|----------|--0--|
g|----------|--0--|
D|----------|--2--|
A|------01-|--2--|
E|-03------|--0--|
Related for Intensamente tab