Song name
# A B C D E F G H I J K L M N O P Q R S T U V W X Y Z

Los Straitjackets - Calhoun Surf tab

                calhoun surf - Los Straitjackets  
tabbed by: a hemophiliac


Tuning:EADGBe
intro
e|----8-------7------6--------5--------8----------7----------6----------5----|
B|--------5-------5-------5-------5---------5-----------5----------5---------|
G|---------------------------------------------------------------------------|
D|---------------------------------------------------------------------------|
A|---------------------------------------------------------------------------|
E|---------------------------------------------------------------------------|
verse
e|------------10------8------------------------------------------------------|
B|.----10--------------------10-------8--------------8------10---------------|
G|--------------------------------------------10-----------------------------|
D|---------------------------------------------------------------------------|
A|.--------------------------------------------------------------------------|
E|---------------------------------------------------------------------------|

e|---------10------8---------------------------------------------------------|
B|------------------------10------8-------------8-----10-----8-----8---------|
G|---------------------------------------10------------------------------10--|
D|---------------------------------------------------------------------------|
A|---------------------------------------------------------------------------|
E|---------------------------------------------------------------------------|
                                    
e|---------------------------------------------------------------------------|
B|---10----8----8-----------------------------------------------------------.|
G|--------------------------10-------7~~-------------------------------------|
D|---------------------------------------------------------------------------|
A|--------------------------------------------------------------------------.|
E|---------------------------------------------------------------------------|
chorus
e|---------------------------------------------------------------------------|
B|---------------------------------------------------------------------------|
G|----10---------------------------------------------------------------------|
D|------------12------10-----10-----------10------12-------------------------|
A|----------------------------------12---------------------------------------|
E|---------------------------------------------------------------------------|

e|---------------------------------------------------------------------------|
B|---------------------------------------------------------------------------|
G|-----10-------12------14-----14-----12----10-------------------------------|
D|-------------------------------------------------12------------------------|
A|---------------------------------------------------------------------------|
E|---------------------------------------------------------------------------|

e|---------------------------------------------------------------------------|
B|---------------------------------------------------------------------------|
G|----10---------------------------------------------------------------------|
D|------------12------10-----10-----------10------12-------------------------|
A|----------------------------------12---------------------------------------|
E|---------------------------------------------------------------------------|

e|---------------------------------------------------------------------------|
B|--------------------------------10~~~--------------------------------------|
G|---10---12----12----12---10------------------------------------------------|
D|---------------------------------------------------------------------------|
A|---------------------------------------------------------------------------|
E|---------------------------------------------------------------------------|


intro:

verse:2x

chorus:

verse:2x 

chorus:

verse: once

outro: dont know yet

| /  slide up
| \  slide down
| h  hammer-on
| p  pull-off
| ~  vibrato
| +  harmonic
| x  Mute note
===============================================================================
Tap to rate this tab
 
# A B C D E F G H I J K L M N O P Q R S T U V W X Y Z