Song name
# A B C D E F G H I J K L M N O P Q R S T U V W X Y Z

Los Straitjackets - Cal-speed tab

From the new album
01- Cal-speed

Lead and Rhythm guitar

Just learn these riffs and play it the necesary times :P

Tuning: Db

Riff1               Riff2              Riff3      Riff5

----------------    ----------------   ------     -----------------|
----------------    ----------------   ------     -7-7-6-4-4-2-4-6-|
----------------    -3-3-3-3--------   ------     -6---------------|
-3-3-3-3--------    -1-1-1-1--------   ------     -8---------------|
-1-1-1-1--------    --------4-3-4-3-   -4-6--     -----------------|
---------4-3-4-3    ----------------   -2-4--     -----------------|

Riff6               Riff6A                       Riff7

-------------       -----------------------      -------------------------|
-7-7-6-7-6-4-       -7-7-6-7-6-4-3-4-3-4-3-      -------------------------|
-6-----------       -6---------------------      -------------------------|
-4-----------       -4---------------------      -3-3-3-3-3-3-6-6-8-8-8---|
-------------       -----------------------      -1-1-1-1-1-1-4-4-6-6-6---|
-------------       -----------------------      -------------------------|
Tap to rate this tab
# A B C D E F G H I J K L M N O P Q R S T U V W X Y Z