Song name
# A B C D E F G H I J K L M N O P Q R S T U V W X Y Z

Los Straitjackets - The Casbah tab

Intro 

1||------------------------------||
2||------------------------------||
3||----------------------------||
4||-5--7--8-8/12--7-7/12--5~---||
5||------------------------------||
6||------------------------------||X2

Riff 1
1|-----------||------------------------||
2|-----------||------86----------------||
3|--7-7------||-767---765------------||
4|-----8-7-5-||----------85----------||
5|-----------||------------------------||
6|-----------||------------------------||X3

Riff 2
1|--------------------------------------------------------------------|
2|--------------------------------------------------------------------|
3|--------------------------------------------------------------------|
4|--5-578/10101010101010101010101010-10/1212121212121212121212121212--|
5|--------------------------------------------------------------------|
6|--------------------------------------------------------------------|

Riff 1
Riff 2

it's all i have i wish it can help you
Surf Rules!!!
tabbed by:Daythor
Tap to rate this tab
 
# A B C D E F G H I J K L M N O P Q R S T U V W X Y Z