Song name
# A B C D E F G H I J K L M N O P Q R S T U V W X Y Z

Los Straitjackets - Caveman tab

Help us improve GuitareTab! Take a short survey!
"Caveman"
Los Straijackets

TUNING: DADGBe

RIFF 1

e|-------------------|-----------------------|
B|-------------------|-----------------------|
G|-------------------|-----------------------|
D|-------------------|-----------------------|
A|-------------------|-----------------------|
D|-0-0-3-3-5-5-3-3---|---5-5-8-8-10-10-8-8---|

RIFF 2

e|-----------------------------------|
B|-----------------------------------|
G|-----------------------------------|
D|-----------------------------------|  x2
A|-----------------------------------|
D|-0-0-0-0-0-0-7-7-0-0-7-7-0-0-7-7---|

e|-----------------------------------|
B|-----------------------------------|
G|-----------------------------------|
D|-----------------------------------|  x2
A|-------------5-5-----5-5-----5-5---|
D|-5-5-5-5-5-5-----5-5-----5-5-------|

e|-----------------------------------|
B|-----------------------------------|
G|-----------------------------------|
D|-----------------------------------| x2
A|-0-0-0-0-0-0-7-7-0-0-7-7-0-0-7-7---|
E|-----------------------------------|

e|-----------------------------------|
B|-----------------------------------|
G|-----------------------------------|
D|-----------------------------------|  x2
A|-----------------------------------|
D|-0-0-0-0-0-0-7-7-0-0-7-7-0-0-7-7---|

RIFF 3

e|-----------------------------------|
B|-----------------------------------|
G|-----------------------------------|
D|-----------------------------------|  
A|-----7-7-5-5-3-3-----5-5-3-3-2-2---|
D|-0-0-------------3-3---------------|
Related for Caveman tab