Song name
# A B C D E F G H I J K L M N O P Q R S T U V W X Y Z

Los Tres - La Torre De Babel tab

Los Tres
La Torre de Babel
Fome


INTRO:

1/-----9-7-------9-7-----10^9-10^9-10^9-10^9-
2/-------------------------------------------    4 veces
3/-4/9-----4/9-9-----4/9---------------------


LA7-SOL7-LA7-SOL7-LA7


 LA                    SOL       LA
EN LA TORRE DE BABEL VIVIAN 50 CIGARROS
                   SOL               LA
VIVIAN AMONTONADOS HECHOS TODOS DE PAPEL
 RIFF1
UNO A UNO ALINEADOS TODOS MUY BIEN FORMADOS
 RIFF1
EL MAS PEQUE?O ERA AQUEL Y SE LLAMABA GABRIEL

 LA                    SOL          LA
TABACO FINO ALGODONES IBAN A VER AL RIO
IBAN CANTANDO CANCIONES MUERTOS DE FRIO
LA PASION DE GABRIEL ERA NADAR EN EL RIO
LE CONTO DE ESTO A SU TIO QUE ERA UN CIGARRO DE MIEL.

RIFF2-INTRO

SU TIO QUE ERA MUY VIEJO NO LE PUSO REPAROS
Y CUANDO LLEGO EL HABANO FORRADO ENTERO DE CAFE
DONDE SE METIO GABRIEL PREGUNTO INQUIETO EL HABANO
SE FUE CON OTROS CIGARROS A VER EL RIO CORRER
NO LO PUEDO CEER ERES MUY MAL CIUDADANO
PUES TU SOBRINO Y HERMANO TAL VEZ NUNCA PUEDA VOLVER.

RIFF2-INTRO

CUANDO LLEGO EL HABANO A LA ORILLA DEL RIO
VIO UN PEQUE?O CIGARRO MUERTO ABIERTO Y TENDIDO
ESTABA TODO MOJADO SIN SE?ALES DE VIDA
EL TABACO SE DESPRENDIA QUEDABA DESPARRAMADO
TRISTEZA LLANTO Y LAMENTO REINARAN DESDE HOY EN BABEL
SE NO HA MUERTO GABRIEL TODO HA QUEDADO EN SILENCIO.

RIFF2
Y SOLAMENTE UN BUEN FUEGO PUEDE DAR MUERTE A UN CIGARRO
PERO SI MUERE MOJADO ES IGUAL QUE SI A UN HOMBRE
                     INTRO
LO MATARAN COLGADO.............COLGADO.


RIFF1

4/-------------5-------------------
5/---7-7-6-6-7---7-6-6-7---5---6---
6/-5---------------------3---4---5-


RIFF2

2/-------3---------------------------------3---------
3/-2-4-5---5-4-5-4-------------------2-4-5---5-4-5-4-
4/-----------------3-0-2-0^2^0-----------------------
5/-----------------------------3-2-0-----------------


2/-------------------6---6/5---5/4---4/3-1-3-1-3-3/5-
3/---------------------5-----4-----3---2-0-2-0-2-2/4-
4/-3-0-2-0^2^0---------------------------------------
5/-------------3-2-0---------------------------------

?????VIVAN LOS TRES!!!!!
Tap to rate this tab
 
# A B C D E F G H I J K L M N O P Q R S T U V W X Y Z