Song name
# A B C D E F G H I J K L M N O P Q R S T U V W X Y Z

Los Tres - Amor Violento tab

|-9--9--9--9--12-12-5-5-5-7-7-9--9--9--9--14-12-12-10-12-14-12-12--|
|-10-10-10-10-14-14-7-7-7-9-9-10-10-10-10-15-14-14-12-14-15-14-14--|
|------------------------------------------------------------------|
|------------------------------------------------------------------|
|------------------------------------------------------------------|
|------------------------------------------------------------------|

|-9--9--12-10-10-9--7-5-7-9--5-5-----------------------------------|
|-10-10-14-12-12-10-9-7-9-10-7-7-767676767-------------------------|
|------------------------------------------------------------------|
|------------------------------------------------------------------|
|------------------------------------------------------------------|
|------------------------------------------------------------------|

|-----------------------------------------------------------------------|
|-5-9-7-7--5-5-7-9-10-9-9-7-767--5-5-7-9-10-9-9-7-7-6-7-6-7-9-10-7------|
|------------------------------------------------------------------7-6-4|
|-2-6-4-4--2-2-4-9-7--6-6-4-434--2-2-4-6-7--6-6-4-4-3-4-3-4-6-7--4------|
|------------------------------------------------------------------5-4-2|
|-----------------------------------------------------------------------|

|--------------------|
|-55454545-77676767--|
|--------------------|
|-22121212-44343434--|
|--------------------|
|--------------------|
Tap to rate this tab
# A B C D E F G H I J K L M N O P Q R S T U V W X Y Z