Song name
# A B C D E F G H I J K L M N O P Q R S T U V W X Y Z

Loser - Girl Like You tab

-------------------------------------------------------------------------------
			     Girl Like You - Loser
-------------------------------------------------------------------------------
Tabbed by: Enigma829
Email: Fuzzsand@yahoo.com

Tuning: Drop D (DADGBe)

Intro

e|-------------------------------------------------------------------------|
B|--------------------7b---------------------------------------------------|
G|--------------------7b---------------------------------------------------| 
D|-77-xx-77-xx-77-5-7------77-xx-77-xx-77-5-5-6----------------------------|
A|-00-xx-00-xx-00----------00-xx-00-xx-00-0-0-0----------------------------|
D|-------------------------------------------------------------------------|


Verse

e|-------------------------------------------------------------------------|
B|-------------------------------------------------------------------------|
G|-------------------------------------------------------------------------| 
D|-77-xx-77-xx-77----------77-xx-77-xx-77-5-5-6----------------------------|
A|-00-xx-00-xx-00----------00-xx-00-xx-00-0-0-0----------------------------|
D|-------------------------------------------------------------------------|


Chorus

e|-------------------------------------------------------------------------|
B|------------7b-5b-----7b-5b----------------------------------------------|
G|------------7b-5b-----7b-5b----------------------------------------------| 
D|-7-6-5--5-7-------5-7-------7-5------------------------------------------|
A|-7-6-5-------------------------------------------------------------------|
D|-7-6-5-------------------------------------------------------------------|


Solo

Haven't figured out solo, don't plan on it...


Song Pattern

Intro x6
Verse x6
Chorus x4
Intro x2
Verse x4
Intro x2
Chorus x4
Solo
Intro x2
Chorus x7



| /  slide up
| \  slide down
| h  hammer-on
| p  pull-off
| ~  vibrato
| +  harmonic
| x  Mute note
===============================================================================
Tap to rate this tab
# A B C D E F G H I J K L M N O P Q R S T U V W X Y Z