Song name
# A B C D E F G H I J K L M N O P Q R S T U V W X Y Z

Loserquest - I Tried tab

Song:I Tried
Band:LoserQuest
Album:U Know
Capo 3rd 
Standard Tuning

INTRO:VERSE 2X
E------------------0-0-0------0-0-
B------------------0-0-0------0-0-
G---------------------------------
D-------------0------------------- Picked 2x
A---------5----------------h/3----
E----2----------------------------

E-----0-0-0-0--------0-0-0-0------
B-----0-0-0-0--------0-0-0-0------
G-----5-5-5-5--------7-7-7-7------
D-----2-2-2-2--------4-4-4-4------
A-----0-0-0-0--------0-0-0-0------
E-----0-0-0-0--------0-0-0-0------

CHORUS:2X
E-----3-3-3-3----3-3-3-3----0-0-0-0----0-0-0-0----
B-----3-3-3-3----1-1-1-1----0-0-0-0----1-1-1-1----
G-----0-0-0-0----0-0-0-0----2-2-2-2----2-2-2-2----
D-----0-0-0-0----0-0-0-0----2-2-2-2----3-3-3-3----
A-----0-0-0-0----3-3-3-3----0-0-0-0----0-0-0-0----
E-----3-3-3-3----0-0-0-0----0-0-0-0----0-0-0-0----

VERSE:


CHORUS:
Tap to rate this tab
# A B C D E F G H I J K L M N O P Q R S T U V W X Y Z