Song name
# A B C D E F G H I J K L M N O P Q R S T U V W X Y Z

Losers Luck - Derailed Dreams tab

Sweet you're checking out my tab! :D
I hope it sounds close enough.
Have fun with it. ;}

song: DERAILED DREAMS
artist: LOSER'S LUCK
tabbed by: MICHAEL SANTELLANO
tuning: DADGBE GTRS 1&2

guitar 1 {00:00-00:24}
e|-----------------------------------------------------|
b|-----------------------------------------------------|
g|-----------------------------------------------------|
d|-0--7-5---0-0--0-0-7-5--55555555---------------------|
a|-0--7-5---0-0--0-0-7-5--55555555---------------------|
d|-0--7-5---0-0--0-0-7-5--55555555---------------------|

guitar 2 {00:00-00:18}
e|-----10----10----10----10----10------9----9----9----9----9----|
b|---10--10----10----10----10----10--10-10---10---10---10---10--|
g|-11------11----11----11----11----11-----11---11---11---11-----|
d|--------------------------------------------------------------|
a|--------------------------------------------------------------|
d|--------------------------------------------------------------| (x3)

guitar 2 {00:18-00:24}
e|-----10----10----10----10----10------9----9------9--9--9--9--9--9--9--9--|
b|---10--10----10----10----10----10--10-10---10----10-10-10-10-10-10-10-10-|
g|-11------11----11----11----11----11-----11---11--11-11-11-11-11-11-11-11-|
b|-------------------------------------------------0--0--0--0--0--0--0--0--|
a|-------------------------------------------------------------------------|
d|-------------------------------------------------------------------------|

guitar 1 {00:24-01:19}
e|-----------------------------------------------------|
b|-----------------------------------------------------|
g|-----------------------------------------------------|
d|-0---0----0--0---0---0---5---5---5--5---5---5--------|
a|-0---0----0--0---0---0---5---5---5--5---5---5--------|
d|-0xx-0xx--0x-0xx-0xx-0x--5xx-5xx-5x-5xx-5xx-5x-------| (x9)

{00:37}
Down at the tracks where we first kissed that night,
we made every wrong seem to go right.
We were beginning to lose all control.
Your hair, was blowing in the wind.
Your words, were softer than your skin.
Your eyes, they locked up with mine.

guitar 1 {01:19-01:24}
e|-----------------------------------------------------|
b|-----------------------------------------------------|
g|-----------------------------------------------------|
d|-0---0----0--0---0---0---5---5---5---55555555--------|
a|-0---0----0--0---0---0---5---5---5---55555555--------|
d|-0xx-0xx--0x-0xx-0xx-0x--5xx-5xx-5x--55555555--------|

{01:19}
And what I saw, I thought I left behind.

guitar 1 {01:25-01:36}
e|-----------------------------------------------------|
b|-----------------------------------------------------|
g|-----------------------------------------------------|
d|-9-7-5--9-7-5----------------------------------------|
a|-9-7-5--9-7-5----------------------------------------|
d|-9-7-5--9-7-5----------------------------------------|

guitar 2 {01:25-01:37}
e|--------------------------------------------------------------|
b|--------------------------------------------------------------|
g|-11-9-7--11-9-7--777777---------------------------------------|
d|-11-9-7--11-9-7--777777---------------------------------------|
a|-9--7-5--9--7-5--555555---------------------------------------|
d|--------------------------------------------------------------|

{01:25}
Why can't I leave you behind?
Why can't I leave you behind?

guitar 1 {01:36-o1:49}
e|--------------------------------------------------------------------------------|
b|--------------------------------------------------------------------------------|
g|--------------------------------------------------------------------------------|
d|-000000-0-000-000-00-000-0-000-000-00-000-5-555-555-55-555-4-44444444-5555-0000-|
a|-000000-0-000-000-00-000-0-000-000-00-000-5-555-555-55-555-4-44444444-5555-0000-|
d|-000000-0-000-000-00-000-0-000-000-00-000-5-555-555-55-555-4-44444444-5555-0000-|

guitar 2 {01:37-02:01}
e|-------------------------------------------------------------------------|
b|-------------------------------------------------------------------------|
g|-------------------------------------------------------------------------|
d|-7-777-777-77-777-7-777-777-77-777-7-777-777-77-777-77777777-7777-7777---|
a|-5-555-555-55-555-7-777-777-77-777-x-xxx-xxx-xx-xxx-44444444-5555-7777---|
d|-----------------------------------5-555-555-55-555----------------------|

{01:36}
My heart is so blind.
Fake, fake the way you hold me.
Fake the way you look into my eyes.
It gets me everytime.

guitar 1 {01:49-02:01}
e|-------------------------------------------------------------------------|
b|-------------------------------------------------------------------------|
g|-------------------------------------------------------------------------|
d|-0-000-000-00-000-0-000-000-00-000-5-555-555-55-555-4-44444444-5555-0000-|
a|-0-000-000-00-000-0-000-000-00-000-5-555-555-55-555-4-44444444-5555-0000-|
d|-0-000-000-00-000-0-000-000-00-000-5-555-555-55-555-4-44444444-5555-0000-|

guitar 2 {01:37-02:01}
e|-------------------------------------------------------------------------|
b|-------------------------------------------------------------------------|
g|-------------------------------------------------------------------------|
d|-7-777-777-77-777-7-777-777-77-777-7-777-777-77-777-77777777-7777-7777---|
a|-5-555-555-55-555-7-777-777-77-777-x-xxx-xxx-xx-xxx-44444444-5555-7777---|
d|-----------------------------------5-555-555-55-555----------------------|

{01:51}
Fake, fake the way you hold me.
Fake the way you look into my eyes.
It gets me everytime.

guitar 1 {02:01-02:14}
e|-------------------------------------------------------------------------|
b|-------------------------------------------------------------------------|
g|-------------------------------------------------------------------------|
d|-0000-000-000-000-0000-000-000-000-5555-555-555-555-4444-44/5555-0-------|
a|-0000-000-000-000-0000-000-000-000-5555-555-555-555-4444-44/5555-0-------|
d|-0000-000-000-000-0000-000-000-000-5555-555-555-555-4444-44/5555-0-------|

guitar 2 {02:02-02:14}
e|-------------------------------------------------------------------------|
b|-------------------------------------------------------------------------|
g|-------------------------------------------------------------------------|
d|-777-777-7777-7777-777-777-7777-7777-777-777-7777-7777-777-777-7777777-7-|
a|-555-444-5555-xxxx-555-444-5555-7777-555-444-5555-7777-555-444-5555555-x-|
d|--------------7777-----------------------------------------------------7-|

{02:06}
Get's me everytime

guitar 1 {02:14-02:23}
e|-------------------------------------------------------------------------|
b|-------------------------------------------------------------------------|
g|-------------------------------------------------------------------------|
d|-444--555-0-00-5/4-000-000-5555-555--4444444/5555-0000-------------------|
a|-444--555-0-00-5/4-000-000-5555-555--4444444/5555-0000-------------------|
d|-444--555-0-00-5/4-000-000-5555-555--4444444/5555-0000-------------------|

guitar 2 {02:14-02:23}
e|--------------------------------------------------------------|
b|--------------------------------------------------------------|
g|--------------------------------------------------------------|
d|-777-777-7777-7-7-77777777-77777777-77777777-7777-7777--------|
a|-444-555-xxxx-5-4-77777777-55555555-44444444-5555-7777--------|
d|---------7777-------------------------------------------------|

{02:14}
Why'd you have to go and make this difficult again?
We can't even just be friends.

guitar 1 {02:23-03:00}
e|-------------------------------------------------------------------------|
b|-------------------------------------------------------------------------|
g|-------------------------------------------------------------------------|
b|-0-000-000-00-000-0-000-000-00-000-5-555-555-55-555-4-44444444-5555-0000-|
a|-0-000-000-00-000-0-000-000-00-000-5-555-555-55-555-4-44444444-5555-0000-|
d|-0-000-000-00-000-0-000-000-00-000-5-555-555-55-555-4-44444444-5555-0000-| (X3)

guitar 2 {02:24-03:12}
e|-------------------------------------------------------------------------|
b|-------------------------------------------------------------------------|
g|-------------------------------------------------------------------------|
d|-7-777-777-77-777-7-777-777-77-777-7-777-777-77-777-77777777-7777-7777---|
a|-5-555-555-55-555-7-777-777-77-777-x-xxx-xxx-xx-xxx-44444444-5555-7777---|
d|-----------------------------------5-555-555-55-555----------------------| (X3)

{02:23}{02:36}{02:49}
Fake, fake the way you hold me.
Fake the way you look into my eyes.
It gets me everytime.

guitar 1 {03:00-03:12}
e|---------------------------------------------------------------------------|
b|---------------------------------------------------------------------------|
g|---------------------------------------------------------------------------|
d|-0-000-000-00-000-0-000-000-00-000-5-555-555-55-555-4-44444444-5555-0000-0-|
a|-0-000-000-00-000-0-000-000-00-000-5-555-555-55-555-4-44444444-5555-0000-0-|
d|-0-000-000-00-000-0-000-000-00-000-5-555-555-55-555-4-44444444-5555-0000-0-|

guitar 2 {03:00-03:12}
e|-------------------------------------------------------------------------|
b|-------------------------------------------------------------------------|
g|-------------------------------------------------------------------------|
d|-7-777-777-77-777-7-777-777-77-777-7-777-777-77-777-77777777-7777-7777-7-|
a|-5-555-555-55-555-7-777-777-77-777-x-xxx-xxx-xx-xxx-44444444-5555-7777-5-|
d|-----------------------------------5-555-555-55-555----------------------|

{03:01}
Fake, fake the way you hold me.
Fake the way you look into my eyes.
It gets me everytime.

{03:14}
When will this train come and sweep me off my feet?
Just take me away.

guitar 1 {03:20-03:58}
e|-------------------------------------------------------------------------|
b|-------------------------------------------------------------------------|
g|-------------------------------------------------------------------------|
d|-0--0--0--0-7--7/5--5-0--0000000000000000--------------------------------|
a|-0--0--0--0-7--7/5--5-0--0000000000000000--------------------------------|
d|-0--0--0--0-7--7/5--5-0--0000000000000000--------------------------------|

guitar 2 {03:20-03:52}
e|-----10----10----10----10----10------9----9----9----9----9----|
b|---10--10----10----10----10----10--10-10---10---10---10---10--|
g|-11------11----11----11----11----11-----11---11---11---11-----|
d|--------------------------------------------------------------|
a|--------------------------------------------------------------|
d|--------------------------------------------------------------| (X5)

guitar 2 {03:52-03:58}
e|-----10----10----10----10----10------9----9------9--9--9--9--9--9--9--9--|
b|---10--10----10----10----10----10--10-10---10----10-10-10-10-10-10-10-10-|
g|-11------11----11----11----11----11-----11---11--11-11-11-11-11-11-11-11-|
d|-------------------------------------------------0--0--0--0--0--0--0--0--|
a|-------------------------------------------------------------------------|
d|-------------------------------------------------------------------------|

{03:31}
Take me away
Take me away
Take me away
Take me away
Take me away

guitar 1 {03:58-4:10}
e|-------------------------------------------------------------------------|
b|-------------------------------------------------------------------------|
g|-------------------------------------------------------------------------|
d|-0-0-000000-0-000-000-00-000-5-555-555-55-555-4-4444/55-0000-------------|
a|-0-0-000000-0-000-000-00-000-5-555-555-55-555-4-4444/55-0000-------------|
d|-0-0-000000-0-000-000-00-000-5-555-555-55-555-4-4444/55-0000-------------|

guitar 2 {03:58-04:10}
e|-------------------------------------------------------------------------|
b|-------------------------------------------------------------------------|
g|-------------------------------------------------------------------------|
d|-7-7-77777777-7-777-777-77-777-7-777-777-77-777-77777777-7777-7777-------|
a|-5-5-55555555-7-777-777-77-777-x-xxx-xxx-xx-xxx-44444444-5555-7777-------|
d|-------------------------------5-555-555-55-555--------------------------|

{03:59}
Fake, fake, fake the way you hold me.
fake the way you look into my eyes.
It gets me everytime.

guitar 1 {04:10-04:22}
e|----------------------------------------------------------------------|
b|----------------------------------------------------------------------|
g|----------------------------------------------------------------------|
d|-0-000-000-00-000-0-000-000-00-000-5-555-555-55-555-4-4444/55-0000----|
a|-0-000-000-00-000-0-000-000-00-000-5-555-555-55-555-4-4444/55-0000----|
d|-0-000-000-00-000-0-000-000-00-000-5-555-555-55-555-4-4444/55-0000----|

guitar 2 {04:10-04:22}
e|-----------------------------------------------------------------------|
b|-----------------------------------------------------------------------|
g|-----------------------------------------------------------------------|
d|-7-777-777-77-777-7-777-777-77-777-7-777-777-77-777-77777777-7777-7777-|
a|-5-555-555-55-555-7-777-777-77-777-x-xxx-xxx-xx-xxx-44444444-5555-7777-|
d|-----------------------------------5-555-555-55-555--------------------|

{04:12}
Fake, fake, fake the way you hold me.
fake the way you look into my eyes.
It gets me everytime.

guitar 1 {04:22-04:48}
e|----------------------------------------------------------------------|
b|----------------------------------------------------------------------|
g|----------------------------------------------------------------------|
d|-0000-000-000-000-0000-000-000-000-5555-555-555-555-4444-44/5555-0000-|
a|-0000-000-000-000-0000-000-000-000-5555-555-555-555-4444-44/5555-0000-|
d|-0000-000-000-000-0000-000-000-000-5555-555-555-555-4444-44/5555-0000-| (X2)

guitar 2 {04:22-04:48}
e|-----------------------------------------------------------------------|
b|-----------------------------------------------------------------------|
g|-----------------------------------------------------------------------|
d|-7-777-777-77-777-7-777-777-77-777-7-777-777-77-777-77777777-7777-7777-|
a|-5-555-555-55-555-7-777-777-77-777-x-xxx-xxx-xx-xxx-44444444-5555-7777-|
d|-----------------------------------5-555-555-55-555--------------------| (X2)

{04:24} {04:36}
Fake, fake, fake the way you hold me.
fake the way you look into my eyes.
It gets me everytime.

guitar 1 {04:47-04:54}
e|------------------------------------------------------------------------|
b|------------------------------------------------------------------------|
g|------------------------------------------------------------------------|
d|-000-444/555-0-000--000-444/555/444-0-----------------------------------|
a|-000-444/555-0-000--000-444/555/444-0-----------------------------------|
d|-000-444/555-0-000--000-444/555/444-0-----------------------------------|

guitar 2 {04:48-04:54}
e|--------------------------------------------------------------|
b|--------------------------------------------------------------|
g|--------------------------------------------------------------|
d|-777-7-777-777-777-777-7-777-777-777-7------------------------|
a|-555-5-555-555-555-555-5-555-555-555-5------------------------|
d|--------------------------------------------------------------|

{04:52}
It gets me everytime.
Tap to rate this tab
# A B C D E F G H I J K L M N O P Q R S T U V W X Y Z