Song name
# A B C D E F G H I J K L M N O P Q R S T U V W X Y Z

Loso - Sip See Eek Krung tab

this is more accurate the others. this is most of the song once you figure this 
you can figure out the rest...i will submit the solo later.
                THIS IS A FINGER PICKING SONG 

            REPEAT PHRASE 5 TIMES
-----0-------0-------0-------0----- ||--------|
|---1---1---1---1---1---1---1---1-- ||--------|
|-----------------------------------||--------|
|---------0-------2-------0---------||---0----|
|-3-------------------------------- ||-3------|
|-----------------------------------||--------|


  
|-----------------------|------------------|--------------|
|---------0h1p0------0--|------------0h1p0-|------0-------|
|-0h=2-2-----------0----|-0--0h=2-2--------|----0----0----|
|-0h=2----------2-------|----0h=2----------|-2------------|
|---------------2-------|------------------|-2------------|
|-----------------------|------------------|--------------|

                                 CHORUS REPEAT THREE TIMES

|--------------------------------0----------------------0-h-1-p-0|
|-----0---1--0-------0---1-3p1---1---1p0-------0-----------------|
|---0---0----------0---0-----------0-----0---0---0----2----------|
|---------------------------------------------------0------------|
|--------------------------------3-------------------------------|
|-3--------------3-------------------------3---------------------|




|-1--1-----------0-------||-------------|-------0h1p0----|
|-1-----------1-----1---o||-------0-----|----------------|
|-2----------------------||----0-----0--|----2-----------|
|-3----------------------||-------------|-0--------------|
|----------3------------o||-------------|----------------|
|-------3----------------||-3-----------|----------------|



|-1--1-------|
|-1----------|
|-2----------|
|-3----------|
|------------|
|-------3----|
Tap to rate this tab
 
# A B C D E F G H I J K L M N O P Q R S T U V W X Y Z