Song name
# A B C D E F G H I J K L M N O P Q R S T U V W X Y Z

Loso - Som Sarn tab

   this is 100% correct so bare with me here any suggestions our concerns?
e-mail me mylifereallysuks@hotmail.com


there are 2 guitar but one guitar is only playing this A F#m D E and theres some palm
but youll figure out the timing for that when you here the song.


this is the lead guitar:

Intro
E|-------------------------------------------------------------|
B|-------------------------------------------------------------|
G|-------------------------------------------------------------|
D|---------6----------------6----------------------------------|
A|-----------8~--8-3-4--6/8---6-----6--------------------------|
E|---4-6/8----------------------6/8---8-6-4--------------------|


Solo
E|-------------------------------------------------------------|
B|------------------------------------------------------9------|
G|--------------------------------------------------------10---|
D|---------6----------------6--------------6---6~--8/10--------|
A|-----------8~--8-3-4--6/8---6---6----6-8---8-----------------|
E|---4-6/8--------------------------6h8------------------------|

E|-------------------------------------------------------------|
B|---------9-----------------9--------------9-^11-9------------|
G|--8-8/10---10-8--5-6--8/10---10-8--8-8/10---------8-10-------|
D|-------------------------------------------------------------|
A|-------------------------------------------------------------|
E|-------------------------------------------------------------|


Outtro
E|-------------------------------------------------------------|
B|-------------------------------------------------------------|
G|--------------------------------5----------------------------|
D|---------6------------------6-8---8---6-5--------------------|
A|-----------8~--8-3-4--4-6/8---------------8-6----------------|
E|---4-6/8---------------------------------------6-6-6-4-6-6/8-|

E|-------------------------11----------------------------------|
B|-------------------9-11^----11^--11-9----11-9-9--------------|
G|--------------8-10--------------------10--------10-8----8^---|
D|------6-8-/10----------------------------------------10------|
A|--6-8--------------------------------------------------------|
E|-------------------------------------------------------------|

E|---------------------------------------8-9-8------------8-11-|
B|-----------------------------------8-9-------9-8----8-9------|
G|-8------------------------8-----10---------------10----------|
D|---10-8----8---------8h10----11------------------------------|
A|--------11---11-8-11-----------------------------------------|
E|-------------------------------------------------------------|


E|-8------------8-9-8------------8-11/---16-15-13---13-11-------|
B|---9-8----8-9-------9-8----8-9------------------16------13-11-|
G|-------10---------------10------------------------------------|
D|--------------------------------------------------------------|
A|--------------------------------------------------------------|
E|--------------------------------------------------------------|


E|-------------------------------------------------------------|
B|-9-11-9----------------------------------9-11-9----9---------|
G|--------10-8-10-8-------------------8-10--------10-----------|
D|------------------10-8---------8h10--------------------------|
A|-----------------------11-8-11-------------------------------|
E|-------------------------------------------------------------|
Tap to rate this tab
 
# A B C D E F G H I J K L M N O P Q R S T U V W X Y Z