Song name
# A B C D E F G H I J K L M N O P Q R S T U V W X Y Z

Loso - Kaub Jai Jing Jing tab

A great Thai song sung by Loso - Kaub Jai Jing Jing. It's is a very sad luv song. I'm a 
guitar player so if i had maken any mistakes pls correct me. Thanks....

Verse 1# (Intro Lead)

-------------------    ----------------|
-------------------    ----------------|
-------------------    ----------------|
----2-4/5-2/9--7-7-    --7-5-4-5-------|
--2----------------    ----------7-5-7-|
-------------------    ----------------|

-------------------    ----------------|
-------------------    ----------------|
-------------------    ----------------|
----2-4/5-2/12--9-7    --7-5-4-5-------|
--2----------------    ----------------|
-------------------    ----------------|
YAHK-KAUB-JAI-SUK-KRUNG-NEUNG..........

Verse 2# (Intro Lead)
KAUB-JAI-JING-JING....
--------------------    --------------------|
--------------------    --------------------|
--------------------    --------------------|
----2-4/5-2/9--7-7-7    --7-5-4-5-5/7-------|
--2-----------------    --------------7-5-7-|
--------------------    --------------------|

---------------------   -------------------|
---------------------   -------------------|
---------------------   -------------------|
----2-4/5-2/9--7-9-7-   --7-9-10-12--------|
--2------------------   -------------------|
---------------------   -------------------|
TAH-HAK-KRUNG-NEE...............
Tap to rate this tab
 
# A B C D E F G H I J K L M N O P Q R S T U V W X Y Z