Song name
# A B C D E F G H I J K L M N O P Q R S T U V W X Y Z

Lost Acapulco - Mascarita tab

---------------------------------------------------------------------------
                          MASCARITA - LOST ACAPULCO
---------------------------------------------------------------------------
Tabbed by: Japunk
Dificulty: Novice
Tuning: Standard
webpage: www.lostacapulco.com

Intro: 0:00

1|----------------------------------------------------------------------|
2|----------------------------------------------------------------------|
3|----------------------------------------------------------------------|
4|-----4-5-4-5-4-----4-5-4-5-4-----4-5-4-5-4-----4-5-4-5-4--------------|
5|-5-5-----------5-5-----------5-5-----------5-5------------------------|
6|----------------------------------------------------------------------|

1|---------------------------------------------------------------------|
2|---------------------------------------------------------------------|
3|---------------------------------------------------------------------|
4|---------------------------------------------------------------------|
5|----4-5-4-5-4-----4-5-4-5-4-----4-5-4-5-4-----4-5-4-5-4--------------|
6|-5-5-----------5-5-----------5-5-----------5-5-----------------------|

1|----------------------------------------------------------------------|
2|----------------------------------------------------------------------|
3|----------------------------------------------------------------------|
4|-----4-5-4-5-4-----4-5-4-5-4-----4-5-4-5-4-----4-5-4-5-4--------------|
5|-5-5-----------5-5-----------5-5-----------5-5------------5-----------|
6|----------------------------------------------------------------------|

Same as above, but faster / lo mismo de arriba, pero mas rapido
0:24

1|----------------------------------------------------------------------|
2|----------------------------------------------------------------------|
3|----------------------------------------------------------------------|
4|-----4-5-4-5-4-----4-5-4-5-4-----4-5-4-5-4-----4-5-4-5-4--------------|
5|-5-5-----------5-5-----------5-5-----------5-5------------------------|
6|----------------------------------------------------------------------|

1|---------------------------------------------------------------------|
2|---------------------------------------------------------------------|
3|---------------------------------------------------------------------|
4|---------------------------------------------------------------------|
5|----4-5-4-5-4-----4-5-4-5-4-----4-5-4-5-4-----4-5-4-5-4--------------|
6|-5-5-----------5-5-----------5-5-----------5-5----------5------------|

1|----------------------------------------------------------------------|
2|----------------------------------------------------------------------|
3|----------------------------------------------------------------------|
4|-----4-5-4-5-4-----4-5-4-5-4-----4-5-4-5-4-----4-5-4-5-4--------------|
5|-5-5-----------5-5-----------5-5-----------5-5------------------------|
6|----------------------------------------------------------------------|


then u play this chords / luego tokas estos akordes:
0:39

1|----------------------------------------------------------------------|
2|----------------------------------------------------------------------|
3|----------------------------------------------------------------------|
4|-5-5-5-5-5-4-4-4-4-4-3-3-3-3-3-3-3------------------------------------|
5|-5-5-5-5-5-4-4-4-4-4-3-3-3-3-3-3-3------------------------------------|
6|-3-3-3-3-3-2-2-2-2-2-1-1-1-1-1-1-1------------------------------------|

MASCARITAAA!!!

then, same riff... / luego lo mismo

1|----------------------------------------------------------------------|
2|----------------------------------------------------------------------|
3|----------------------------------------------------------------------|
4|-----4-5-4-5-4-----4-5-4-5-4-----4-5-4-5-4-----4-5-4-5-4--------------|
5|-5-5-----------5-5-----------5-5-----------5-5------------------------|
6|----------------------------------------------------------------------|

1|---------------------------------------------------------------------|
2|---------------------------------------------------------------------|
3|---------------------------------------------------------------------|
4|---------------------------------------------------------------------|
5|----4-5-4-5-4-----4-5-4-5-4-----4-5-4-5-4-----4-5-4-5-4--------------|
6|-5-5-----------5-5-----------5-5-----------5-5----------5------------|

1|----------------------------------------------------------------------|
2|----------------------------------------------------------------------|
3|----------------------------------------------------------------------|
4|-----4-5-4-5-4-----4-5-4-5-4-----4-5-4-5-4-----4-5-4-5-4--------------|
5|-5-5-----------5-5-----------5-5-----------5-5------------------------|
6|----------------------------------------------------------------------|

then chords again / luego los akordes otra vez:


1|----------------------------------------------------------------------|
2|----------------------------------------------------------------------|
3|----------------------------------------------------------------------|
4|-5-5-5-5-5-4-4-4-4-4-3-3-3-3-3-3-3--5-5-5-5-5-4-4-4-4-4-3-3-3-3-3-3-3-|
5|-5-5-5-5-5-4-4-4-4-4-3-3-3-3-3-3-3--5-5-5-5-5-4-4-4-4-4-3-3-3-3-3-3-3-|
6|-3-3-3-3-3-2-2-2-2-2-1-1-1-1-1-1-1--3-3-3-3-3-2-2-2-2-2-1-1-1-1-1-1-1-|

MASCARITAA!!

outro:

1|----------------------------------------------------------------------|
2|----------------------------------------------------------------------|
3|----------------------------------------------------------------------|
4|-----4-5-4-5-4-----4-5-4-5-4-----4-5-4-5-4-----4-5-4-5-4--------------|
5|-5-5-----------5-5-----------5-5-----------5-5------------------------|
6|----------------------------------------------------------------------|
Tap to rate this tab
# A B C D E F G H I J K L M N O P Q R S T U V W X Y Z