Song name
# A B C D E F G H I J K L M N O P Q R S T U V W X Y Z

Lost Cause - Born Dead tab

Intro :

e|--------------|----------------------------|
b|--------------|----------------------------|
g|--------------|----------------------------|
d|7---6---4---6-|--7-6-4-6-------------------|
a|7---6---4---4-|--7-6-4-6-(repeat X 2)------|
e|5---4---2---4-|--5-4-2-4-------------------|

e|-------------------------------------------|
b|-------------------------------------------|
g|-------------------------------------------|
d|7-7-7-6--6-6--4-4-4-6--6-6-----------------|
a|7-7-7-6--6-6--4-4-4-4--4-4-----------------|
e|5-5-5-4--4-4--2-2-2-4--4-4-----------------|

Second guitar:

e|7-7-7-6--6-6--4-4-4-6--6-6-----------------|
b|7-7-7-6--6-6--4-4-4-6--6-6-----------------|
g|5-5-5-4--4-4--2-2-2-4--4-4-----------------|
d|-------------------------------------------|
a|-------------------------------------------|
e|-------------------------------------------|

Verses 1:

e|-------------------------------------------|
b|-------------------------------------------|
g|-------------------------------------------|
d|7-7-7-6--6-6--4-4-4-6--6-6-----------------|(repeat X 4)
a|7-7-7-6--6-6--4-4-4-4--4-4-----------------|
e|5-5-5-4--4-4--2-2-2-4--4-4-----------------|

Second guitar:

e|7-7-7-6--6-6--4-4-4-6--6-6-----------------|
b|7-7-7-6--6-6--4-4-4-6--6-6-----------------|
g|5-5-5-4--4-4--2-2-2-4--4-4-----------------|
d|-------------------------------------------|(repeat X 2)
a|-------------------------------------------|
e|-------------------------------------------|

e|-------------------------------------------|
b|-------------------------------------------|
g|4-4-4-5--5-5-7-7-7-9--9-9------------------|
d|4-4-4-5--5-5-7-7-7-9--9-9------------------|(repeat X 3)
a|2-2-2-3--3-3-5-5-5-7--7-7------------------|
e|-------------------------------------------|

Verse 2:
e|-------------------------------------------|
b|-------------------------------------------|
g|-------------------------------------------|
d|7-7-7-6--6-6--4-4-4-6--6-6-----------------|(repeat X 4)
a|7-7-7-6--6-6--4-4-4-4--4-4-----------------|
e|5-5-5-4--4-4--2-2-2-4--4-4-----------------|


Second guitar:

e|7-7-7-6--6-6--4-4-4-6--6-6-----------------|
b|7-7-7-6--6-6--4-4-4-6--6-6-----------------|
g|5-5-5-4--4-4--2-2-2-4--4-4-----------------|
d|-------------------------------------------|(repeat X 2)
a|-------------------------------------------|
e|-------------------------------------------|


e|-------------------------------------------|
b|-------------------------------------------|
g|4-4-4-5--5-5-7-7-7-9--9-9------------------|
d|4-4-4-5--5-5-7-7-7-9--9-9------------------|(repeat X 3)
a|2-2-2-3--3-3-5-5-5-7--7-7------------------|
e|-------------------------------------------|

Verse 3:


e|-------------------------------------------|
b|-------------------------------------------|
g|-------------------------------------------|
d|7-7-7-6--6-6--4-4-4-6--6-6-----------------|(repeat X 4)
a|7-7-7-6--6-6--4-4-4-4--4-4-----------------|
e|5-5-5-4--4-4--2-2-2-4--4-4-----------------|


Second guitar:

e|7-7-7-6--6-6--4-4-4-6--6-6-----------------|
b|7-7-7-6--6-6--4-4-4-6--6-6-----------------|
g|5-5-5-4--4-4--2-2-2-4--4-4-----------------|
d|-------------------------------------------|(repeat X 2)
a|-------------------------------------------|
e|-------------------------------------------|

End:

e|-------------------------------------------|
b|-------------------------------------------|
g|------9~7----------------------------------|
d|9-9-9-9~7----------------------------------|(repeat X 14)
a|9-9-9-7~5----------------------------------|
e|7-7-7--------------------------------------|

e|-------------------------------------------|
b|-------------------------------------------|
g|-------------------------------------------|
d|7-7-7-6--6-6--4-4-4-6--6-6-----------------|(repeat X 4)
a|7-7-7-6--6-6--4-4-4-4--4-4-----------------|
e|5-5-5-4--4-4--2-2-2-4--4-4-----------------|


Second guitar:

e|7-7-7-6--6-6--4-4-4-6--6-6-----------------|
b|7-7-7-6--6-6--4-4-4-6--6-6-----------------|
g|5-5-5-4--4-4--2-2-2-4--4-4-----------------|
d|-------------------------------------------|(repeat X 2)
a|-------------------------------------------|
e|-------------------------------------------|


http://www.youtube.com/watch?v=WH1Zph34rSo
Tap to rate this tab
# A B C D E F G H I J K L M N O P Q R S T U V W X Y Z