Song name
# A B C D E F G H I J K L M N O P Q R S T U V W X Y Z

Lost Cause - My Hot Beef tab

drop D tuning
intro
e|---------------------------------------------|
b|---------------------------------------------|
g|---------------------------------------------|
d|---6-5-3-0--5/7\5-3--6-5-3-0--xx-0-----------|
a|---6-5-3-0--5/7\5-3--6-5-3-0--xx-0-----------|
d|---6-5-3-0--5/7\5-3--6-5-3-0--xx-0-----------|


e|---------------------------------------------|
b|---------------------------------------------|
g|---------------------------------------------|
d|---6-5-3-0--5/7\5-3--6-5-3-0--3-5-3-0--------|
a|---6-5-3-0--5/7\5-3--6-5-3-0--3-5-3-0--------|
d|---6-5-3-0--5/7\5-3--6-5-3-0--3-5-3-0--------|


e|--------------------------------------------------|
b|--------------------------------------------------|
g|--------------------------------------------------|
d|---6-5-3-0--5/7\5-3--6-5-3-0--xx-xx-xx-xx---------|
a|---6-5-3-0--5/7\5-3--6-5-3-0--xx-xx-xx-xx---------|
d|---6-5-3-0--5/7\5-3--6-5-3-0--xx-xx-xx-xx---------|


verse
e|---------------------------------------------|
b|---------------------------------------------|
g|---------------------------------------------|
d|--0-xx-xxxxxx--------------------------------|    repeat x4
a|--0-xx-xxxxxx--------------------------------|
d|--0-xx-xxxxxx--------------------------------|


e|---------------------------------------------|
b|---------------------------------------------|
g|---------------------------------------------|
d|---6-5-3-0-----------------------------------|
a|---6-5-3-0-----------------------------------|
d|---6-5-3-0-----------------------------------|


e|---------------------------------------------|
b|---------------------------------------------|
g|---------------------------------------------|
d|--0-xx-xxxxxx--------------------------------|
a|--0-xx-xxxxxx--------------------------------|
d|--0-xx-xxxxxx--------------------------------|


e|---------------------------------------------------|
b|---------------------------------------------------|
g|---------------------------------------------------|
d|--777777777777-333333333333-555555555555-5555------|
a|--777777777777-333333333333-555555555555-5555------|
d|--777777777777-333333333333-555555555555-5555------|
                                            pm

the solo has yet to be done but this is the main part of the song, work it out for 
tabed by si guitarist of da band.
go vistit our crazy shit website at www.fishpaste.tk
Tap to rate this tab
# A B C D E F G H I J K L M N O P Q R S T U V W X Y Z