Song name
# A B C D E F G H I J K L M N O P Q R S T U V W X Y Z

Lost City Angels - Broken World tab

Help us improve GuitareTab! Take a short survey!
Standard Tuning

INTRO(riff)
---------------2-----------------------2---2h3-2---|
-0-2-3-0-2-3-----3-0-2-3-0-2-3-0-2-3-----3-------3-|
-------------0-----------------------0-------------|
---------------------------------------------------|
---------------------------------------------------|
---------------------------------------------------|

INTRO(chords)/VERSE
-7-7-7-7---------------|
-7-7-7-7-77777/8-8-8-8-|
-4-4-4-4-66666/7-7-7-7-|
---------44444/5-5-5-5-|
-----------------------|
-----------------------|

CHORUS
-----------------------------------------------------------------|
-----------------------------------------------------------------|
-4-4-4-4-4-4-4-4-----------------2-2-2-2-2-2-2-2-----------------|
-4-4-4-4-4-4-4-4-5-5-5-5-5-5-5-5-2-2-2-2-2-2-2-2-4-4-4-4-4-4-4-4-|
-2-2-2-2-2-2-2-2-5-5-5-5-5-5-5-5-0-0-0-0-0-0-0-0-4-4-4-4-4-4-4-4-|
-----------------3-3-3-3-3-3-3-3-----------------2-2-2-2-2-2-2-2-|
Related for Broken World tab