Song name
# A B C D E F G H I J K L M N O P Q R S T U V W X Y Z

Lost In Aubrey - Love War tab

Rhythm Guitar

Intro-
C# | -------------------------------------------------------|
G# | -------------------------------------------------------|
E    | -----------------------------------------------------|
B    | 0-----------0-----------8------------5-----7---------|
F#  | 0-----------0-----------8------------5-----7----------|
B    | 0-----------0-----------8------------5-----7---------| x2

Verse-
C# | -------------------------------------------------------------|
G# | -------------------------------------------------------------|
E    | -----------------------------------------------------------|
B    | -----------------------------------------------------------|
F#  | ---------------------------5-------------------------5------|
B    | 12--0000000-0----0000000-8---7--0000000----0000000-8---7---|

C# | --------------------------------------------------|
G# | --------------------------------------------------|
E    | ------------------------------------------------|
B    | 8------------5-----7----------------------------|
F#  | 8------------5-----7-----------------------------|
B    | 8------------5-----7-------  (Strum this part---| x2

Breakdown Verse thing-
C# | -------------------------------------------------------------------------|
G# | -------------------------------------------------------------------------|
E    | -----------------------------------------------------------------------|
B    | -----------------------------------------------------------------------|
F#  | ------------------------------------------------------------------------|
B    | 1111111-1-1--------1111111-1-1-1-1----1111111-1-1------1111111-1-1-1-3-|

C# | --------------------------------------------------------------------|
G# | --------------------------------------------------------------------|
E    | ------------------------------------------------------------------|
B    | ------------------------------------------------------------------|
F#  | -------------------------------------------------------------------|
B    | 0000000-0-0-----0000000-0-0-0-0---0000000-0-0-----0000000-0-0-0-0-|

Next Part-
C# | --------------------------------------------------------------------------|
G# | --------------------------------------------------------------------------|
E    | ------------------------------------------------------------------------|
B    | 8--8--8-8------5--5--5-5------------------------------------------------|
F#  | 8--8--8-8------5--5--5-5-------------------------------------------------|
B    | 8--8--8-8------5--5--5-5-------0--0--0-0--0--0--0-0--0--0--0--0  x2 1/2-|

Next Paht-
C# | --------------------------------------------------------------------------|
G# | --------------------------------------------------------------------------|
E    | ------------------------------------------------------------------------|
B    | ------------------------------------------------------------------------|
F#  | -------------------------------------------------------------------------|
B    | 000000000008888888888885555555777777000000000008888888888885555555777777

Mini-Breakdown
C# | -------------------------------------------------------------------|
G# | -------------------------------------------------------------------|
E    | -----------------------------------------------------------------|
B    | 0----------------------------------------------------------------|
F#  | 0-----------------------------------------------------------------|
B    | 0-----------(0--0--0--0-0------0-----0--0--0--0--0)-- Repeat ----| x4

Next Paht-
C# | --------------------------------------------------------------------------|
G# | --------------------------------------------------------------------------|
E    | ------------------------------------------------------------------------|
B    | ------------------------------------------------------------------------|
F#  | -------------------------------------------------------------------------|
B    | 00000--00--0000----88888--88--8888----33333--33--3333555555555777777777-|

Other Breakdown-
C# | ------------------------------------------------------------|
G# | ------------------------------------------------------------|
E    | -----------------------------------------(slide)----------|
B    | ----------------5555---------------------5577-------------|
F#  | ----------------3333---------------------3355--------------|
B    | 00--00--00--00-----------00--00--00--00-------------------|x2

C# | --------------------------------------------------------------------------|
G# | --------------------------------------------------------------------------|
E    | ------------------------------------------------------------------------|
B    | 1-----------------------------------------------------------------------|
F#  | 1------------------------------------------------------------------------|
B    | 1----11--11--11--11----11--11--11--11----00--00--00--00--00--00--00--00-|

The rest is all repeated riffs! Also imagine as if these were lined up..
Tap to rate this tab
 
# A B C D E F G H I J K L M N O P Q R S T U V W X Y Z