Song name
# A B C D E F G H I J K L M N O P Q R S T U V W X Y Z

Lost In The Trees - All Alone In An Empty House tab

All Alone In An Empty House
By: Lost In The Trees
Tabbed by: Nathaniel Noton-Freeman


Intro:
  .   .    .   .     .   .   .   .
|------------------|-----------------|
|------------------|-----------------|
|-----0h1------2-1-|(1)--1-------6---|
|---2----2---2-----|---2---2---7---7-|
|------------------|---------0-------|
|-0--------0-------|-----------------|
  Emaj                       Asus6

  .   .    .   .     .  .   .    .      .    .   .   .     .      .   .     .   
|------------------|------------------|--------------5p0-|----------------------|
|------------------|------------------|------------------|-----7-(7)------------|
|-----0h1------2-1-|----1------2----2-|----6-----6-------|-6------------6-------|
|---2----2---2-----|--2---2-2/4--4/6--|-6/7----7---7-----|---7------7-----7---7-|
|------------------|------------------|------0-----------|------------0-----0---|
|-0--------0-------|------------------|------------------|----------------------|
  Emaj                                       Asus6

  .   .   .     .     .   .   .     . 
|---------5p0-------|---------5p0-------|
|-----------------7-|(7)--------------7-|
|-----6-------6-----|-------------6-----|
|---7---7-------7---|---7---7-------7---|
|-0-----------------|-----0-------------|
|-------------------|-------------------|


Intro second repetition:
  .   .    .   .     .   .   .   .
|------------------|-----------------|
|------------------|-----------------|
|-----0h1------2-1-|(1)--1-------6---|
|---2----2---2-----|---2---2---7---7-|
|------------------|---------0-------|
|-0--------0-------|-----------------|
  Emaj                       Asus6

  .   .    .   .     .  .   .    .      .    .   .   .     .      .   .     .   
|------------------|------------------|--------------5p0-|-----9-(9)------------|
|------------------|------------------|------------------|----------------------|
|-----0h1------2-1-|----1------2----2-|----6-----6-------|-6------------6-------|
|---2----2---2-----|--2---2-2/4--4/6--|-6/7----7---7-----|---7------7-----7---7-|
|------------------|------------------|------0-----------|------------0-----0---|
|-0--------0-------|------------------|------------------|----------------------|
  Emaj                                       Asus6

  .   .   .     .     .   .   .     . 
|---------5p0-------|---------5p0-------|
|-----------------7-|(7)--------------7-|
|-----6-------6-----|-------------6-----|
|---7---7-------7---|---7---7-------7---|
|-0-----------------|-----0-------------|
|-------------------|-------------------|

  .   .    .   .     .   .   .   .     .   .    .   .   
|------------------|-----------------|------------------|
|------------------|-----------------|------------------|
|-----0h1------2-1-|(1)--1-------6---|-----0h1------2-1-|
|---2----2---2-----|---2---2---7---7-|---2----2---2-----|
|------------------|---------0-------|------------------|
|-0--------0-------|-----------------|-0--------0-------|
  Emaj                       Asus6     Emaj




I spent my whole (Asus6) life on you,
And I built you a gorgeous (E) house.
To put up with (Asus6) your bitched mouth,
And I've thrown all my dreams (E) right out.

And I'm so (Asus6) selfless here,
I'm so selfless (C#m) here.
There's a cloud (Adom7) in my head,
I'm so selfless (E) here,

And what do you (Asus6) want from me,
I've buried my own bab(E)ies.
And I live all a(Asus6)lone in an empty house,
I've thrown all my dreams right (E) out.

And I'm so (Asus6) lonely here,
I'm so lonely (C#m) here.
There's a cloud in my (Adom7) head,
I'm so lonely (E) here.

So I (Asus6)tend the garden,
Tend the garden,
Tend the garden,
Tend the garden.
(C#m)Tend the garden,
Tend the garden,
Tend the garden,
Build the stone wall.
(Asus6)What are you hiding,
What are you hiding,
What are you hiding,
Is something dirty?
(C#m)Something dirty
What are you hiding,
What are you hiding,
Something dirty?
(Asus6)Where is the baby,
Where is the baby,
Where is the baby,
You hold the baby.
(C#m)You touched the baby,
You must be crazy,
I must be crazy,
I touched the baby.
(Asus6)Hide in the tower,
Hide in the tower,
Hide in the tower,
Right in the tower,
(C#m)Right in the tower,
Right in the tower,
Right in the tower.
For all I care cause I (Asus6) hate your soul,
And how I hate your (C#m) soul.
Will the church pro(Asus6)tect me,
How I hate your (C#m) soul.

(Bm)

Are we (A) leaving,
Are we (Bm) ever (A) leaving,
We've got (Bm) black spots (A) in our eyes, 
Are (Bm) we ever (A) leaving.
No we (Bm) never meant to hurt (A) anyone,
Never (Bm) meant to (A) hurt anyone,
No punch (Bm) holes in (A) to the wall,
(Bm)But never hurt (A) anyone.
No, no (Bm) one is (A) perfect,
And, (Bm) no one is (A) perfect,
We've got (Bm) a hole in our (A)heart,
No (Bm) one is (A) perfect.
Tap to rate this tab
 
# A B C D E F G H I J K L M N O P Q R S T U V W X Y Z