Song name
# A B C D E F G H I J K L M N O P Q R S T U V W X Y Z

Lost In The Trees - Wooden Walls Of This Forest Church tab

-----------------------------------------------------------------
Wooden Walls Of This Forest Church - Lost In The Trees
-----------------------------------------------------------------
Tabbed by: rebornyeti
Email: n/a

Tuning: Standard


e|---------------------------------------------------------------|
B|---------------------------------------------------------------|
G|------0-------0-------0-------0-------0-------0----------------|
D|----3---3---3---3---3---3---3---3---3---3---3---3--------------|
A|--2---------------2---------------2----------------------------|
E|----------0---------------0---------------0--------------------| x15* x6
    C       Em      C       Em      C       Em
e|---------------------------------------------------------------|
B|---------------------------------------------------------------|
G|------2-------2-------2-------2--------------------------------|
D|----3---3---3---3---3---3---3---3------------------------------|
A|--3---------------3--------------------------------------------|
E|----------1---------------1------------------------------------| x1
    F

                                      Repeat everything over again

*x15 for Intro.

------------------------------------

Lyrics:

I'll follow
The path of a white doe
Wooden walls of this forest church
Protecting me from falling stone

And what have I learned
The coward is so concerned
If the sun will come out and burn
All who went out of turn

And I think that you're alive
You've done just fine
You don't always have to get it right
Get it right the first time

So I'll follow

--------------------------------------

It's really easy if you just play along with the song. I may be wrong on the number of 
repetitions though, but whatever haha.

Anyway, this is my first tab. Hope it helped!
Tap to rate this tab
# A B C D E F G H I J K L M N O P Q R S T U V W X Y Z