Guitaretab - guitar tabs
Song name
# A B C D E F G H I J K L M N O P Q R S T U V W X Y Z

Lost On Liftoff - Naked And Wasted tab

http://www.lostonliftoff.com/

Tuning: Standard

key

h = hammer on
p = pull off
/ and \ = slide
b = bend
~ = let ring OR vibrato (I used them pretty much interchangeably; figure it out yourself)
pm . . = palm mute
x = dampened string


Intro:

gtr I
E|------------------------------------------------|
B|------------------------------------------------|
G|--10-12-12---------10-12-12---------10-12-12-10-|    x3
D|-----------8-10-10----------8-10-10-------------|
A|------------------------------------------------|
E|------------------------------------------------|
pm  . . . . . . . . . . . . . . . . . . . . . . .

4th time is this:

E|-------------------------------------|
B|-------------------------------------|
G|--10-12-12---------10-12-12----------|
D|-----------8-10-10----------8-10\\\--|
A|-------------------------------------|
E|-------------------------------------|
pm . . . . . . . . . . . . . .

2nd part of intro,
Rhythm comes in:

gtr I
E|------------------------------------------------|
B|------------------------------------------------|
G|--10-12-12---------10-12-12---------10-12-12-10-|    x4
D|-----------8-10-10----------8-10-10-------------|
A|------------------------------------------------|
E|------------------------------------------------|


gtr II
E|---------------------------------------------------------------------|
B|---------------------------------------------------------------------|
G|--------------------------------8-8-8-8------------------------------|   x2
D|-3-3-3-3-6--6-6-6-6-6--6-6-6-6--8-8-8-8-8--8-8-8-8-8--8-8-8-8--10-10-|
A|-3-3-3-3-6--6-6-6-6-6--6-6-6-6--6-6-6-6-8--8-8-8-8-8--8-8-8-8--10-10-|
E|-1-1-1-1-4--4-4-4-4-4--4-4-4-4----------6--6-6-6-6-6--6-6-6-6--8--8--|


Verse:

gtr I
E|------------------------------------------------|
B|------------------------------------------------|
G|--10-12-12---------10-12-12---------10-12-12-10-|    x4
D|-----------8-10-10----------8-10-10-------------|
A|------------------------------------------------|
E|------------------------------------------------|
pm  . . . . . . . . . . . . . . . . . . . . . . .

gtr II
E|-----------------------------------------|
B|-----------------------------------------|
G|-----------------------------------------|
D|-----------------------------------------|
A|3-3-3-3-6-6-6-6-6-6-6-6-6-6-6-6-6-6-6-6--|
E|1-1-1-1-4-4-4-4-4-4-4-4-4-4-4-4-4-4-4-4--|
pm . . . . . . . . . . . . . . . . . . .
                                                          x2
------------------------------------------------|
------------------------------------------------|
------------------------------------------------|
-8-8-8-8----------------------------------------|
-6-6-6-6-8-8-8-8-8-8-8-8-8-8-8-8-8-8-8-8--10-10-|
---------6-6-6-6-6-6-6-6-6-6-6-6-6-6-6-6--8--8--|
pm . . . . . . . . . . . . . . . . .

let the last chords ring, the second time a little more than the first

Pre-chorus:

gtr I + II
E|--------------------------------------------------------------|
B|--------------------------------------------------------------|
G|--------------------------------------------------------------|       x2
D|-3-3-3-3--6-6-6-6-6-6-6-6----3-3-3-3--6-6-6-6-6-6--8-8--------|
A|-3-3-3-3--6-6-6-6-6-6-6-6----3-3-3-3--6-6-6-6-6-6--8-8--------|
E|-1-1-1-1--4-4-4-4-4-4-4-4----1-1-1-1--4-4-4-4-4-4--6-6--------|

Chorus:

gtr I
E|----------------------------------------------|
B|----------------------------------------------|
G|-8-8-8-8-8-8-8-8---10-10-10-10-10-10-10-10----|
D|-x-x-x-x-x-x-x-x---x--x--x--x--x--x--x--x-----|
A|-6-6-6-6-6-6-6-6---8--8--8--8--8--8--8--8-----|
E|----------------------------------------------|
[ Tab from: http://www.guitaretab.com/l/lost-on-liftoff/113588.html ]
E|----------------------------------------------|
B|----------------------------------------------|
G|-8-8-8-8-8-8-8-8---12-12-12-12-12-12-12-12----|
D|-x-x-x-x-x-x-x-x---x--x--x--x--x--x--x--x-----|
A|-6-6-6-6-6-6-6-6---10-10-10-10-10-10-10-10----|
E|----------------------------------------------|


gtr II
E|---------------------------------------|
B|---------------------------------------|
G|-8-8-8-8--5-5-5-5--3-3-3-3-3-3-3-3-----|      x2
D|-8-8-8-8--5-5-5-5--3-3-3-3-3-3-3-3-----|
A|-6-6-6-6--3-3-3-3--1-1-1-1-1-1-1-1-----|
E|---------------------------------------|


Verse again

Pre-chorus again

Chorus again


Solo:

E|-----------------------------------------------------|
B|-----------------------------------------------------|
G|-10-12-12---------10-12-12---------------------------|        x3
D|----------8-10-10----------8-10-10-10-10-8-8---------|
A|-----------------------------------------------------|
E|-----------------------------------------------------|

E|--------------------------------|
B|--------------------------------|
G|-9-10-9-10-9-10-9-10-9-10-9-10--|
D|--------------------------------|
A|--------------------------------|
E|--------------------------------|

E|--------------------------|
B|--------------------------|
G|------------12----10~~----|
D|-x-10-12-13----10---------|
A|--------------------------|
E|--------------------------|

not so sure about this part...
E|-------------------------------------------------------------------|
B|-------------------------------------------------------------------|
G|-10h12p10h12b~-----------------------------------------------------|
D|---------------12/13h15p13h15b--12h13p12-12-10h12p10-10--12-10-----|
A|-------------------------------------------------------------------|
E|-------------------------------------------------------------------|

E|----------------------------------------------------------------|
B|----------------------11~---------------------------------------|
G|----------12----10~~------12~-17~---15h17p15h17b~-15h17p15------|
D|-10-12-13----10--------------------------------------------15b~-|
A|----------------------------------------------------------------|
E|----------------------------------------------------------------|

E|----------------------------------------------------------------------------------|
B|----------------------------------------------------------------------------------|
G|-15-17p15h17p15h17b~-15-17p15h17p15------15-17p15h17p15h17b~-15-17p15h17p15-------|
D|------------------------------------15b~------------------------------------15b~--|
A|----------------------------------------------------------------------------------|
E|----------------------------------------------------------------------------------|

E|------------------------------------|
B|------------------------------------|
G|-15-17p15h17p15h17b~-17b~-17b~-17b~-|
D|------------------------------------|
A|------------------------------------|
E|------------------------------------|

E|--------------------------------------------------------------|
B|--------------------------------------------------------------|
G|-17h19p17h19b~--17h19p17-------17h19p17h19b~--17h19p17--------|
D|-------------------------17b~--------------------------17b~---|
A|--------------------------------------------------------------|
E|--------------------------------------------------------------|

E|------------------------|
B|----------20b~~~~~------|
G|-17h19p17---------------|
D|------------------------|
A|------------------------|
E|------------------------|

I probably don't have the exact right amount of hammer-ons/pull-offs/bends mess
with it yourself...


Verse again

Pre-chorus again

Chorus again (twice)


end on
E|-----
B|-----
G|-8~~-
D|-8~~-
A|-6~~-
E|-----


And thats it. one of the best bands to come out of Maine ever