Guitaretab - guitar tabs
Song name
# A B C D E F G H I J K L M N O P Q R S T U V W X Y Z

Lost Prophets - Burn, Burn tab

                                   BURN, BURN
                           As recorded by Lostprophets
                      (From the 2004 Album START SOMETHING)

Words and Music by Lostprophets
Transcribed by C. Thomas


   What the...?  Lost Phrophets???  Maybe I'm a little too anal, but the bands name  is Lostprophets.  Maybe they did it that way because some people might think thats the spelling of the bands name and have trouble finding the tabs.  Well, enough of the rant. 
Let's get down to business.  
   Firstly, note that this song is built almost entirely on the same repeating rhythmic figure with slight variations every once in a while.  You could probably just repeat the first two measures over and over and not many people would really notice or care.
   The distortion on Guitar II is extremely dirty.  It's almost nothing but absolute noise.  This is a great dynamic used alot when multiple guitars are playing together.  As much as I enjoy this, I don't utilize it all that often.  I'm the only guitarist in my band and I find it's usually more effective with a slightly cleaner second guitar.
   Guitar III represents a Grand Piano.  A clean guitar with a little reverb will suffice. 
   Guitar IV only shows up during the bridge.  The guitar briefly feedbacks before either Lee Gaze or Mike Lewis scrapes the G string around where the twenty-fifth fret (G#) would lie with a serrated coin (like a quarter) al a Tool.  To do this, place the coin perpendicularly against the string and rotated it so that the serrated edge rubs against the string.  While doing so, gradually slide the the coin along the string towards the bridge to, aprroximately, the twenty-seventh fret (A#).  Shortly after, the guitar begins to feedback again and holds for six and a half measures.  My guess is that Gaze played this part seeing as he uses thinner sounding guitars (mainly Fender Telecasters) and plays most of the cleaner parts.  Also, don't forget to turn on a little delay.  

   Well, that all there is to note I think.  Keep an eye for other "Lost Phrophets" tabs that are soon to come.  Enjoy!


           A                   F5                    C                   D5
      x 0 2 2 2 x          3 3 x x x x          x 3 5 5 5 x          0 0 x x x x

         (D5V)                 (A)                  A5                F5(type 2)
      x 5 7 7 x x          x 0 2 2 2 x          x 0 2 2 x x          3 3 3 x x x

       D5(type 2)              C5                  E(oct)               D(oct)
      0 0 0 x x x          x 3 5 5 x x          x 7 x 9 x x          x 5 x 7 x x
 
         C(oct)               B(oct)
      x 3 x 5 x x          x 2 x 4 x x

Gtr I (D A D G B E) - 'Dist.'
Gtr II (D A D G B E) - 'Dist'
Gtr III (D A D G B E) - 'Grand Piano'
Gtr IV (D A D G B E) - 'Dist. w/ delay'

 Intro
  Q=156
    A   F5     C     D5   (D5V)       A   F5     C     D5   N.C.
 4/4
  Gtr I
  E E E E Q  E E   E E Q  E E E E   E E E E Q  E E   E E Q  E E Q
|----------------|----------------|----------------|----------------|
|---2-2--------5-|-5--------------|---2-2--------5-|-5--------------|
|---2-2--------5-|-5------5---5s7-|---2-2--------5-|-5--------------|
|---2-2--------5-|-5------5-7-5s7-|---2-2--------5-|-5------x-x-x---|
|---0-0-3-3----3-|-3-0-0----7-----|---0-0-3-3----3-|-3-0-0--x-x-x---|
|-------3-3------|---0-0----------|-------3-3------|---0-0--x-x-x---|
|
| Gtr II
| W                W                W                H      E E Q
|----------------|----------------|----------------|----------------|
|----------------|----------------|----------------|----------------|
|----------------|----------------|----------------|----------------|
|----------------|----------------|----------------|--------x-x-x---|
|----------------|----------------|----------------|--------x-x-x---|
|----------------|----------------|----------------|--------x-x-x---|


    A   F5     C     D5   (D5V)       A          C     D5      N.C.
  E E E E Q  E E   E E Q  E E E E   E E E E Q  E E   E E Q     E  E   Q
|----------------|----------------|----------------|----------------------|
|---2-2--------5-|-5--------------|---2-2--------5-|-5--------------------|
|---2-2--------5-|-5------5---5s7-|---2-2--------5-|-5--------------------|
|---2-2--------5-|-5------5-7-5s7-|---2-2--------5-|-5---------x--x---x---|
|---0-0-3-3----3-|-3-0-0----7-----|---0-0-3-3----3-|-3-0-0-----x--x---x---|
|-------3-3------|---0-0----------|-------3-3------|---0-0-----x--x---x---|
|
| E E E E Q  E E   E E Q  E E E E   E E E E Q  E E   E E E +E  E  E   Q
|----------------|----------------|----------------|----------------------|
|---2-2--------5-|-5--------------|---2-2--------5-|-5--------------------|
|---2-2--------5-|-5------5---5s7-|---2-2--------5-|-5--------------------|
|---2-2--------5-|-5------5-7-5s7-|---2-2--------5-|-5---------x----------|
|---0-0-3-3----3-|-3-0-0----7-----|---0-0-3-3----3-|-3-0-0-(0)-x-<7>-<7>--|
|-------3-3------|---0-0----------|-------3-3------|---0-0-(0)-x----------|


    A   F5     C     D5   (D5V)       A   F5     C     (D5V)   N.C.
  E E E E Q  E E   E E Q  E E E E   E E E E Q  E E   E E Q      E   E   E   E
|----------------|----------------|----------------|---------------------------|
|---2-2--------5-|-5--------------|---2-2--------5-|-5-------------------------|
|---2-2--------5-|-5------5---5s7-|---2-2--------5-|-5-------------------------|
|---2-2--------5-|-5------5-7-5s7-|---2-2--------5-|-5----------x---x---x---x--|
|---0-0-3-3----3-|-3-0-0----7-----|---0-0-3-3----3-|-3-0-0------x---x---x---x--|
|-------3-3------|---0-0----------|-------3-3------|---0-0------x---x---x---x--|
|
| E E E E Q  E E   E E Q  E E E E   E E E E Q  E E   E E E +E   E   E   E   E
|----------------|----------------|----------------|---------------------------|
|---2-2--------5-|-5--------------|---2-2--------5-|-5-------------------------|
|---2-2--------5-|-5------5---5s7-|---2-2--------5-|-5-------------------------|
|---2-2--------5-|-5------5-7-5s7-|---2-2--------5-|-5-------------------------|
|---0-0-3-3----3-|-3-0-0----7-----|---0-0-3-3----3-|-3-0-0-(0)-<7>-<7>-<7>-<7>-|
|-------3-3------|---0-0----------|-------3-3------|---0-0-(0)-----------------|


 1st Verse
    A   F5     C     D5   N.C.     A   F5     C     D5   (D5V)
  Gtr I
  E E E E Q  E E   E E Q  H      E E E E Q  E E   E E Q  E E E E
|----------------|-------------|----------------|----------------|
|---2-2--------5-|-5-----------|---2-2--------5-|-5--------------|
|---2-2--------5-|-5-----------|---2-2--------5-|-5------5---5s7-|
|---2-2--------5-|-5-----------|---2-2--------5-|-5------5-7-5s7-|
|---0-0-3-3----3-|-3-0-0-------|---0-0-3-3----3-|-3-0-0----7-----|
|-------3-3------|---0-0-------|-------3-3------|---0-0----------|


    A   F5     C     D5   N.C.     A   F5     C     D5   (D5V)
  E E E E Q  E E   E E Q  H      E E E E Q  E E   E E Q  E E E E
|----------------|-------------|----------------|----------------|
|---2-2--------5-|-5-----------|---2-2--------5-|-5--------------|
|---2-2--------5-|-5-----------|---2-2--------5-|-5------5---5s7-|
|---2-2--------5-|-5-----------|---2-2--------5-|-5------5-7-5s7-|
|---0-0-3-3----3-|-3-0-0-------|---0-0-3-3----3-|-3-0-0----7-----|
|-------3-3------|---0-0-------|-------3-3------|---0-0----------|


     A    F5         C       D5      N.C.
  Gtr II
   E  E E  E  E  E E  E    E  E E  E  E  E E  E
|-----------------------|-----------------------|
|-10-10---10-10-10---10-|-10-10---10-10-10---10-|
|-14-14---14-14-14---14-|-14-14---14-14-14---14-|
|-----------------------|-----------------------|
|-----------------------|-----------------------|
|-----------------------|-----------------------|
|
| Gtr I
|  E  E E  E  Q    E  E    E  E Q     H
|-----------------------|-----------------------|
|-----2-2-------------5-|--5--------------------|
|-----2-2-------------5-|--5--------------------|
|-----2-2-------------5-|--5--------------------|
|-----0-0--3--3-------3-|--3--0-0---------------|
|----------3--3---------|-----0-0---------------|


     A    F5         C       D5      (D5V)
   E  E E  E  E  E E  E    E  E E  E  E  E E  E
|-----------------------|-----------------------|
|-10-10---10-10-10---10-|-10-10---10-10-10---10-|
|-14-14---14-14-14---14-|-14-14---14-14-14---14-|
|-----------------------|-----------------------|
|-----------------------|-----------------------|
|-----------------------|-----------------------|
|
|  E  E E  E  Q    E  E    E  E Q     E  E E  E
|-----------------------|-----------------------|
|-----2-2-------------5-|--5--------------------|
|-----2-2-------------5-|--5----------5----5s=7-|
|-----2-2-------------5-|--5----------5--7-5s=7-|
|-----0-0--3--3-------3-|--3--0-0--------7------|
|----------3--3---------|-----0-0---------------|


     A    F5         C       D5      N.C.
   E  E E  E  E  E E  E    E  E E  E  E  E E  E
|-----------------------|-----------------------|
|-10-10---10-10-10---10-|-10-10---10-10-10---10-|
|-14-14---14-14-14---14-|-14-14---14-14-14---14-|
|-----------------------|-----------------------|
|-----------------------|-----------------------|
|-----------------------|-----------------------|
|
|  E  E E  E  Q    E  E    E  E Q     H
|-----------------------|-----------------------|
|-----2-2-------------5-|--5--------------------|
|-----2-2-------------5-|--5--------------------|
|-----2-2-------------5-|--5--------------------|
|-----0-0--3--3-------3-|--3--0-0---------------|
|----------3--3---------|-----0-0---------------|


     A    F5         C       D5      N.C.
   E  E E  E  E  E E  E    E  E E  E E E Q
|-----------------------|-------------------|
|-10-10---10-10-10---10-|-10-10---10--------|
|-14-14---14-14-14---14-|-14-14---14--------|
|-----------------------|------------x-x-x--|
|-----------------------|------------x-x-x--|
|-----------------------|------------x-x-x--|
|
|  E  E E  E  Q    E  E    E  E Q    E E Q
|-----------------------|-------------------|
|-----2-2-------------5-|--5----------------|
|-----2-2-------------5-|--5----------------|
|-----2-2-------------5-|--5---------x-x-x--|
|-----0-0--3--3-------3-|--3--0-0----x-x-x--|
|----------3--3---------|-----0-0----x-x-x--|


 Chorus
  $
    A   F5     C     D5   (D5V)       A   F5     C     D5      D5
  Gtr I
  E E E E Q  E E   E E Q  E E E E   E E E E Q  E E   E E Q     E E E E
|----------------|----------------|----------------|-------------------|
|---2-2--------5-|-5--------------|---2-2--------5-|-5-----------------|
|---2-2--------5-|-5------5---5s7-|---2-2--------5-|-5-----------------|
|---2-2--------5-|-5------5-7-5s7-|---2-2--------5-|-5---------x-x-x-x-|
|---0-0-3-3----3-|-3-0-0----7-----|---0-0-3-3----3-|-3-0-0-----x-x-x-x-|
|-------3-3------|---0-0----------|-------3-3------|---0-0-----x-x-x-x-|
|
| Gtr II
| E E E E Q  E E   E E Q  E E E E   E E E E Q  E E   E E E +E  E E E E
|----------------|----------------|----------------|-------------------|
|---2-2--------5-|-5--------------|---2-2--------5-|-5-----------------|
|---2-2--------5-|-5------5---5s7-|---2-2--------5-|-5-----------------|
|---2-2--------5-|-5------5-7-5s7-|---2-2--------5-|-5---------x-x-x-x-|
|---0-0-3-3----3-|-3-0-0----7-----|---0-0-3-3----3-|-3-0-0-(0)-x-x-x-x-|
|-------3-3------|---0-0----------|-------3-3------|---0-0-(0)-x-x-x-x-|


                                                                    To Coda
    A   F5     C     D5   (D5V)       A   F5     C     D5      N.C.
  E E E E Q  E E   E E Q  E E E E   E E E E Q  E E   E E Q      E   E   E   E
|----------------|----------------|----------------|---------------------------|
|---2-2--------5-|-5--------------|---2-2--------5-|-5-------------------------|
|---2-2--------5-|-5------5---5s7-|---2-2--------5-|-5-------------------------|
|---2-2--------5-|-5------5-7-5s7-|---2-2--------5-|-5----------x---x---x---x--|
|---0-0-3-3----3-|-3-0-0----7-----|---0-0-3-3----3-|-3-0-0------x---x---x---x--|
|-------3-3------|---0-0----------|-------3-3------|---0-0------x---x---x---x--|
|
| E E E E Q  E E   E E Q  E E E E   E E E E Q  E E   E E E +E   E   E   E   E
|----------------|----------------|----------------|---------------------------|
|---2-2--------5-|-5--------------|---2-2--------5-|-5-------------------------|
|---2-2--------5-|-5------5---5s7-|---2-2--------5-|-5-------------------------|
|---2-2--------5-|-5------5-7-5s7-|---2-2--------5-|-5-------------------------|
|---0-0-3-3----3-|-3-0-0----7-----|---0-0-3-3----3-|-3-0-0-(0)-<7>-<7>-<7>-<7>-|
|-------3-3------|---0-0----------|-------3-3------|---0-0-(0)-----------------|


 2nd Verse
  N.C.
  W          W          W          W
|----------|----------|----------|------|
|----------|----------|----------|------|
|----------|----------|----------|------|
|----------|----------|----------|------|
|----------|----------|----------|------|
|----------|----------|----------|------|


  W          W          W          W
|----------|----------|----------|------|
|----------|----------|----------|------|
|----------|----------|----------|------|
|----------|----------|----------|------|
|----------|----------|----------|------|
|----------|----------|----------|------|


  (A)
  Gtr I
              ~~~~~~~~~~~~~~
  Q    Q   E  Q.        +W
|--------------------|--------------------|
|-----10-----10------|-(10)---------------|
|-9--------9---------|--------------------|
|--------------------|--------------------|
|--------------------|--------------------|
|--------------------|--------------------|
|
| Gtr II
| E E  E E E  E  E E     E  E E E E E E E
|--------------------|--------------------|
|--------------------|--------------------|
|--------------------|--------------------|
|--------------------|--------------------|
|-0-0--0-0-0--0--0-0-|---0--0-0-0-0-0-0-0-|
|--------------------|--------------------|


              ~~~                   ~~
  Q    Q   E  Q.        +E  E  E E  H
|--------------------|----------------------|
|-----10-----10------|-(10)---10---10-------|
|-9--------9---------|------9----9----------|
|--------------------|----------------------|
|--------------------|----------------------|
|--------------------|----------------------|
|
| E E  E E E  E  E E     E  E  E E  E E E E
|--------------------|----------------------|
|--------------------|----------------------|
|--------------------|----------------------|
|--------------------|----------------------|
|-0-0--0-0-0--0--0-0-|---0--0--0-0--0-0-0-0-|
|--------------------|----------------------|


             ~~~~~~~~~~~~~
  Q    Q   E Q.       +W
|-------------------|-------------------|
|-----10-----8------|-(8)---------------|
|-9--------9--------|-------------------|
|-------------------|-------------------|
|-------------------|-------------------|
|-------------------|-------------------|
|
| E E  E E E E  E E    E  E E E E E E E
|-------------------|-------------------|
|-------------------|-------------------|
|-------------------|-------------------|
|-------------------|-------------------|
|-0-0--0-0-0-0--0-0-|--0--0-0-0-0-0-0-0-|
|-------------------|-------------------|


                             D.S. al Coda
              ~~~~~~~~~~~~~~
  Q    Q   E  Q.        +W
|--------------------|--------------------||
|-----10-----10------|-(10)---------------||
|-9--------9---------|--------------------||
|--------------------|--------------------||
|--------------------|--------------------||
|--------------------|--------------------||
|
| E E  E E E  E  E E     E  E E E Q   Q
|--------------------|--------------------||
|--------------------|--------------------||
|--------------------|--------------------||
|--------------------|--------------------||
|-0-0--0-0-0--0--0-0-|---0--0-0-0-----8\--||
|--------------------|------------2/------||


 Breakdown
  &
  A5
  Gtr II
   E  E  E  E  E  E  E  E    E   E  E  E  E  E  E  E
|-------------------------|--------------------------|
|-10-10----10-10-10----10-|-10--10----10-10-10----10-|
|-14-14----14-14-14----14-|-14--14----14-14-14----14-|
|-------------------------|--------------------------|
|-------------------------|--------------------------|
|-------------------------|--------------------------|
|
| Gtr I
|  E  E  E  E  E  E  E  E    E   E  E  E  E  E  E  E
|-------------------------|--------------------------|
|-10-10-10----------10-10-|-10-----------10-10-------|
|----------12-12-12-------|-----12-12-12-------12-12-|
|-------------------------|--------------------------|
|-------------------------|--------------------------|
|-------------------------|--------------------------|
|
| Gtr III
|  W                        +W
|-------------------------|--------------------------|
|-------------------------|--------------------------|
|--2----------------------|-(2)----------------------|
|--2----------------------|-(2)----------------------|
|--0----------------------|-(0)----------------------|
|-------------------------|--------------------------|


  F5(type 2)
   E  E E  E  E  E E  E    E   E  E  E  E  E  E  E
|-----------------------|--------------------------|
|-10-10---10-10-10---10-|-10--10----10-10-10----10-|
|-14-14---14-14-14---14-|-14--14----14-14-14----14-|
|-----------------------|--------------------------|
|-----------------------|--------------------------|
|-----------------------|--------------------------|
|
|  E  E E  E  E  E E  E    E   E  E  E  E  E  E  E
|-----------------------|--------------------------|
|-----------------------|--------------------------|
|--7--7-7----------7--7-|--7------------7--7-------|
|---------10-10-10------|-----10-10-10-------10-10-|
|-----------------------|--------------------------|
|-----------------------|--------------------------|
|
|  W                      +W
|-----------------------|--------------------------|
|-----------------------|--------------------------|
|-----------------------|--------------------------|
|--3--------------------|-(3)----------------------|
|--3--------------------|-(3)----------------------|
|--3--------------------|-(3)----------------------|


  D5(type 2)
   E  E  E  E  E  E  E  E    E   E  E  E  E  E  E  E
|-------------------------|--------------------------|
|-10-10----10-10-10----10-|-10--10----10-10-10----10-|
|-14-14----14-14-14----14-|-14--14----14-14-14----14-|
|-------------------------|--------------------------|
|-------------------------|--------------------------|
|-------------------------|--------------------------|
|
|  E  E  E  E  E  E  E  E    E   E  E  E  E  E  E  E
|-------------------------|--------------------------|
|-10-10-10----------10-10-|-10-----------10-10-------|
|----------12-12-12-------|-----12-12-12-------12-12-|
|-------------------------|--------------------------|
|-------------------------|--------------------------|
|-------------------------|--------------------------|
|
|  W                        +W
|-------------------------|--------------------------|
|-------------------------|--------------------------|
|-------------------------|--------------------------|
|--0----------------------|-(0)----------------------|
|--0----------------------|-(0)----------------------|
|--0----------------------|-(0)----------------------|


  C5
   E  E E  E  E  E E  E    E   E E  E  E  E  E  E
|-----------------------|-------------------------|
|-10-10---10-10-10---10-|-10--10---10-10-10-10-10-|
|-14-14---14-14-14---14-|-14--14---14-14-14-14-14-|
|-----------------------|-------------------------|
|-----------------------|-------------------------|
|-----------------------|-------------------------|
|
|  E  E E  E  E  E E  E    E   E E  E  E  E  E  E
|-----------------------|-------------------------|
|--8--8-8----------8--8-|--8-----------8--8-------|
|----------9--9--9------|------9-9--9--------9--9-|
|-----------------------|-------------------------|
|-----------------------|-------------------------|
|-----------------------|-------------------------|
|
|  W                      +W
|-----------------------|-------------------------|
|-----------------------|-------------------------|
|-----------------------|-------------------------|
|--3--------------------|-(3)---------------------|
|--3--------------------|-(3)---------------------|
|--3--------------------|-(3)---------------------|


  (Eoct)    (D oct)    (C oct)     (B oct)
  Gtr II
  TP         TP         TP         TP
  W          W          W          W
|----------|----------|----------|----------|
|----------|----------|----------|----------|
|-9--------|-7--------|-5--------|-4--------|
|----------|----------|----------|----------|
|----------|----------|----------|----------|
|----------|----------|----------|----------|
|
| Gtr I
| TP         TP         TP         TP
| W          W          W          W
|----------|----------|----------|----------|
|----------|----------|----------|----------|
|----------|----------|----------|----------|
|----------|----------|----------|----------|
|-7--------|-5--------|-3--------|-2--------|
|----------|----------|----------|----------|
  Chords imply tonality of Guitars I and II


  A5   D5(typeF5(type 2C5     D5(type 2)
  Q.   E +Q   Q    +E  E +Q   H      +W
|----------------|-----------------|--------|
|----------------|-----------------|--------|
|-2--------------|-----5-(5)-------|--------|
|-2----0-(0)--3--|-(3)-5-(5)--0----|-(0)----|
|-0----0-(0)--3--|-(3)-3-(3)--0----|-(0)----|
|------0-(0)--3--|-(3)--------0----|-(0)----|
|
| Q.   E +Q   Q    +E  E +Q   H      +W
|----------------|-----------------|--------|
|----------------|-----------------|--------|
|-2--------------|-----5-(5)-------|--------|
|-2----0-(0)--3--|-(3)-5-(5)--0----|-(0)----|
|-0----0-(0)--3--|-(3)-3-(3)--0----|-(0)----|
|------0-(0)--3--|-(3)--------0----|-(0)----|


 Bridge
  (A)
  Gtr IV
   W                       W
|-----------------------|-----------------------|
|-----------------------|-----------------------|
|-----------------------|-----------------------|
|-----------------------|-----------------------|
|-----------------------|-----------------------|
|-----------------------|-----------------------|
|
| Gtr II
|  E  E E  E  E  E E  E    E  E E  E  E  E E  E
|-----------------------|-----------------------|
|-10-10---10-10-10---10-|-10-10---10-10-10---10-|
|-14-14---14-14-14---14-|-14-14---14-14-14---14-|
|-----------------------|-----------------------|
|-----------------------|-----------------------|
|-----------------------|-----------------------|


                                      <
                                      ~~~~~~~~~~
   W                       H          Q     +Q
|-----------------------|-----------*20----(20)----|
|-----------------------|--------------------------|
|-----------------------|--------------------------|
|-----------------------|--------------------------|
|-----------------------|--------------------------|
|-----------------------|--------------------------|
|
|  E  E E  E  E  E E  E    E  E E  E  E  E   E   E
|-----------------------|--------------------------|
|-10-10---10-10-10---10-|-10-10---10-10-10------10-|
|-14-14---14-14-14---14-|-14-14---14-14-14------14-|
|-----------------------|--------------------------|
|-----------------------|--------------------------|
|-----------------------|--------------------------|
                                     *feedback 

                 >
    ~~~~~~~~~~~~~~~~
   +H           +H             W
|-(20)---------(20)---------|-----------------------|
|---------------------------|-----------------------|
|---------------------------|**25s==================|
|---------------------------|-----------------------|
|---------------------------|-----------------------|
|---------------------------|-----------------------|
|
|   E   E E  E   E   E E  E    E  E E  E  E  E E  E
|---------------------------|-----------------------|
|--10--10---10--10--10---10-|-10-10---10-10-10---10-|
|--14--14---14--14--14---14-|-14-14---14-14-14---14-|
|---------------------------|-----------------------|
|---------------------------|-----------------------|
|---------------------------|-----------------------|
                              **Scrape string at approximate 
                              fret with the serrated edge of 
                              a quarter or similar coin.


   Q    Q     H            W
|-----------------------|-----------------------|
|-----------------------|-----------------------|
|-27--------------------|-----------------------|
|-----------------------|-----------------------|
|-----------------------|-----------------------|
|-----------------------|-----------------------|
|
|  E  E E  E  E  E E  E    E  E E  E  E  E E  E
|-----------------------|-----------------------|
|-10-10---10-10-10---10-|-10-10---10-10-10---10-|
|-14-14---14-14-14---14-|-14-14---14-14-14---14-|
|-----------------------|-----------------------|
|-----------------------|-----------------------|
|-----------------------|-----------------------|


     A    F5         C       D5      N.C.
  Gtr IV
                           <
                           ~~~~~~~~~~~~~~~~~~~~~~~~
   W                       H          +H
|-----------------------|-------------------------|
|-----------------------|-------------------------|
|-----------------------|*14---------(14)---------|
|-----------------------|-------------------------|
|-----------------------|-------------------------|
|-----------------------|-------------------------|
|
| Gtr II
|  E  E E  E  E  E E  E    E  E E  E   E   E E  E
|-----------------------|-------------------------|
|-10-10---10-10-10---10-|-10-10---10--10--10---10-|
|-14-14---14-14-14---14-|-14-14---14--14--14---14-|
|-----------------------|-------------------------|
|-----------------------|-------------------------|
|-----------------------|-------------------------|
|
| Gtr I
|  E  E E  E  Q    E  E    E  E Q      H
|-----------------------|-------------------------|
|-----2-2-------------5-|--5----------------------|
|-----2-2-------------5-|--5----------------------|
|-----2-2-------------5-|--5----------------------|
|-----0-0--3--3-------3-|--3--0-0-----------------|
|----------3--3---------|-----0-0-----------------|
                         *feedback


       A    F5         C         D5      N.C.
 ~~~~~~~~~~~~~~~~~~~~~~~~~~~~~~~~
   +W                        +W
|-------------------------|-------------------------|
|-------------------------|-------------------------|
|-(14)--------------------|-(14)--------------------|
|-------------------------|-------------------------|
|-------------------------|-------------------------|
|-------------------------|-------------------------|
|
|   E   E E  E  E  E E  E     E   E E  E  E  E E  E
|-------------------------|-------------------------|
|--10--10---10-10-10---10-|--10--10---10-10-10---10-|
|--14--14---14-14-14---14-|--14--14---14-14-14---14-|
|-------------------------|-------------------------|
|-------------------------|-------------------------|
|-------------------------|-------------------------|
|
|   E   E E  E  Q    E  E     E   E Q     H
|-------------------------|-------------------------|
|-------2-2-------------5-|---5---------------------|
|-------2-2-------------5-|---5---------------------|
|-------2-2-------------5-|---5---------------------|
|-------0-0--3--3-------3-|---3---0-0---------------|
|------------3--3---------|-------0-0---------------|


       A    F5         C         D5      (D5V)
    ~~~~~~~~~~~~~~~~~~~~~~~~~~~~~~~~~~~~~~~~~~~~~~~~~
   +W                        +W
|-------------------------|-------------------------|
|-------------------------|-------------------------|
|-(14)--------------------|-(14)--------------------|
|-------------------------|-------------------------|
|-------------------------|-------------------------|
|-------------------------|-------------------------|
|
|   E   E E  E  E  E E  E     E   E E  E  E  E E  E
|-------------------------|-------------------------|
|--10--10---10-10-10---10-|--10--10---10-10-10---10-|
|--14--14---14-14-14---14-|--14--14---14-14-14---14-|
|-------------------------|-------------------------|
|-------------------------|-------------------------|
|-------------------------|-------------------------|
|
|   E   E E  E  Q    E  E     E   E Q     E  E E  E
|-------------------------|-------------------------|
|-------2-2-------------5-|---5---------------------|
|-------2-2-------------5-|---5-----------5----5s=7-|
|-------2-2-------------5-|---5-----------5--7-5s=7-|
|-------0-0--3--3-------3-|---3---0-0--------7------|
|------------3--3---------|-------0-0---------------|


       A    F5         C         D5    N.C.
                              >
 ~~~~~~~~~~~~~~~~~~~~~~~~~~~~~~~~
   +W                        +H        H
|-------------------------|-----------------|
|-------------------------|-----------------|
|-(14)--------------------|-(14)------------|
|-------------------------|-----------------|
|-------------------------|-----------------|
|-------------------------|-----------------|
|
|   E   E E  E  E  E E  E     E   E Q  H
|-------------------------|-----------------|
|--10--10---10-10-10---10-|--10--10---------|
|--14--14---14-14-14---14-|--14--14---------|
|-------------------------|-----------------|
|-------------------------|-----------------|
|-------------------------|-----------------|
|
|   E   E E  E  Q    E  E     E   E Q  H
|-------------------------|-----------------|
|-------2-2-------------5-|---5-------------|
|-------2-2-------------5-|---5-------------|
|-------2-2-------------5-|---5-------------|
|-------0-0--3--3-------3-|---3---0-0-------|
|------------3--3---------|-------0-0-------|


    A   F5     C     D5   (D5V)       A   F5     C     D5   N.C.
  Gtrs I, II
  E E E E Q  E E   E E Q  E E E E   E E E E Q  E E   E E Q  H
|----------------|----------------|----------------|-------------|
|---2-2--------5-|-5--------------|---2-2--------5-|-5-----------|
|---2-2--------5-|-5------5---5s7-|---2-2--------5-|-5-----------|
|---2-2--------5-|-5------5-7-5s7-|---2-2--------5-|-5-----------|
|---0-0-3-3----3-|-3-0-0----7-----|---0-0-3-3----3-|-3-0-0-------|
|-------3-3------|---0-0----------|-------3-3------|---0-0-------|


    A   F5     C     D5   (D5V)       A   F5     C     D5   (D5V)
  E E E E Q  E E   E E Q  E E E E   E E E E Q  E E   E E Q  H
|----------------|----------------|----------------|-------------|
|---2-2--------5-|-5--------------|---2-2--------5-|-5-----------|
|---2-2--------5-|-5------5---5s7-|---2-2--------5-|-5-----------|
|---2-2--------5-|-5------5-7-5s7-|---2-2--------5-|-5-----------|
|---0-0-3-3----3-|-3-0-0----7-----|---0-0-3-3----3-|-3-0-0-------|
|-------3-3------|---0-0----------|-------3-3------|---0-0-------|


 Outro Chorus
    A   F5     C     D5   (D5V)       A   F5     C     D5      N.C.
  Gtr I
  E E E E Q  E E   E E Q  E E E E   E E E E Q  E E   E E Q      E   E   Q
|----------------|----------------|----------------|------------------------|
|---2-2--------5-|-5--------------|---2-2--------5-|-5----------------------|
|---2-2--------5-|-5------5---5s7-|---2-2--------5-|-5----------------------|
|---2-2--------5-|-5------5-7-5s7-|---2-2--------5-|-5----------x---x---x---|
|---0-0-3-3----3-|-3-0-0----7-----|---0-0-3-3----3-|-3-0-0------x---x---x---|
|-------3-3------|---0-0----------|-------3-3------|---0-0------x---x---x---|
|
| Gtr II
| E E E E Q  E E   E E Q  E E E E   E E E E Q  E E   E E E +E   E   E   Q
|----------------|----------------|----------------|------------------------|
|---2-2--------5-|-5--------------|---2-2--------5-|-5----------------------|
|---2-2--------5-|-5------5---5s7-|---2-2--------5-|-5----------------------|
|---2-2--------5-|-5------5-7-5s7-|---2-2--------5-|-5----------------------|
|---0-0-3-3----3-|-3-0-0----7-----|---0-0-3-3----3-|-3-0-0-(0)-<7>-<7>-<7>--|
|-------3-3------|---0-0----------|-------3-3------|---0-0-(0)--------------|


    A   F5     C     D5   (D5V)       A   F5     C     D5      (D5V)
  E E E E Q  E E   E E Q  E E E E   E E E E Q  E E   E E Q      E   E   E   E
|----------------|----------------|----------------|---------------------------|
|---2-2--------5-|-5--------------|---2-2--------5-|-5-------------------------|
|---2-2--------5-|-5------5---5s7-|---2-2--------5-|-5-------------------------|
|---2-2--------5-|-5------5-7-5s7-|---2-2--------5-|-5----------x---x---x---x--|
|---0-0-3-3----3-|-3-0-0----7-----|---0-0-3-3----3-|-3-0-0------x---x---x---x--|
|-------3-3------|---0-0----------|-------3-3------|---0-0------x---x---x---x--|
|
| E E E E Q  E E   E E Q  E E E E   E E E E Q  E E   E E E +E   E   E   E   E
|----------------|----------------|----------------|---------------------------|
|---2-2--------5-|-5--------------|---2-2--------5-|-5-------------------------|
|---2-2--------5-|-5------5---5s7-|---2-2--------5-|-5-------------------------|
|---2-2--------5-|-5------5-7-5s7-|---2-2--------5-|-5-------------------------|
|---0-0-3-3----3-|-3-0-0----7-----|---0-0-3-3----3-|-3-0-0-(0)-<7>-<7>-<7>-<7>-|
|-------3-3------|---0-0----------|-------3-3------|---0-0-(0)-----------------|


    A   F5     C     D5               A   F5     C     D5
                          PM----|                           PM----|
  E E E E Q  E E   E E Q  E E E E   E E E E Q  E E   E E Q  E E E E
|----------------|----------------|----------------|----------------|
|---2-2--------5-|-5--------------|---2-2--------5-|-5--------------|
|---2-2--------5-|-5--------------|---2-2--------5-|-5--------------|
|---2-2--------5-|-5--------------|---2-2--------5-|-5--------------|
|---0-0-3-3----3-|-3-0-0--0-0-0-0-|---0-0-3-3----3-|-3-0-0--0-0-0-0-|
|-------3-3------|---0-0--0-0-0-0-|-------3-3------|---0-0--0-0-0-0-|
|
|                         PM----|                           PM----|
| E E E E Q  E E   E E Q  E E E E   E E E E Q  E E   E E Q  E E E E
|----------------|----------------|----------------|----------------|
|---2-2--------5-|-5--------------|---2-2--------5-|-5--------------|
|---2-2--------5-|-5--------------|---2-2--------5-|-5--------------|
|---2-2--------5-|-5--------------|---2-2--------5-|-5--------------|
|---0-0-3-3----3-|-3-0-0--0-0-0-0-|---0-0-3-3----3-|-3-0-0--0-0-0-0-|
|-------3-3------|---0-0--0-0-0-0-|-------3-3------|---0-0--0-0-0-0-|


    A   F5     C     D5               A   F5     C     D5
                          PM----|                               PM---------|
  E E E E Q  E E   E E Q  E E E E   E E E E Q  E E   E E Q      E   E   E   E
|----------------|----------------|----------------|---------------------------|
|---2-2--------5-|-5--------------|---2-2--------5-|-5-------------------------|
|---2-2--------5-|-5--------------|---2-2--------5-|-5-------------------------|
|---2-2--------5-|-5--------------|---2-2--------5-|-5-------------------------|
|---0-0-3-3----3-|-3-0-0--0-0-0-0-|---0-0-3-3----3-|-3-0-0------0---0---0---0--|
|-------3-3------|---0-0--0-0-0-0-|-------3-3------|---0-0------0---0---0---0--|
|
|                         PM----|
| E E E E Q  E E   E E Q  E E E E   E E E E Q  E E   E E E +E   E   E   E   E
|----------------|----------------|----------------|---------------------------|
|---2-2--------5-|-5--------------|---2-2--------5-|-5-------------------------|
|---2-2--------5-|-5--------------|---2-2--------5-|-5-------------------------|
|---2-2--------5-|-5--------------|---2-2--------5-|-5---------------------<7>-|
|---0-0-3-3----3-|-3-0-0--0-0-0-0-|---0-0-3-3----3-|-3-0-0-(0)-<7>-<7>-<7>-----|
|-------3-3------|---0-0--0-0-0-0-|-------3-3------|---0-0-(0)-----------------|


      A   F5     C     D5   (D5V)       A   F5     C     D5   (D5V)
   E  E E E Q  E E   E E Q  E E E E   E E E E Q  E E   E E Q  E E E E
|------------------|----------------|----------------|----------------|
|-----2-2--------5-|-5--------------|---2-2--------5-|-5--------------|
|-----2-2--------5-|-5------5---5s7-|---2-2--------5-|-5------5---5s7-|
|-----2-2--------5-|-5------5-7-5s7-|---2-2--------5-|-5------5-7-5s7-|
|-----0-0-3-3----3-|-3-0-0----7-----|---0-0-3-3----3-|-3-0-0----7-----|
|---------3-3------|---0-0----------|-------3-3------|---0-0----------|
|
|  E  E E E Q  E E   E E Q  E E E E   E E E E Q  E E   E E Q  E E E E
|------------------|----------------|----------------|----------------|
|-----2-2--------5-|-5--------------|---2-2--------5-|-5--------------|
|-<7>-2-2--------5-|-5------5---5s7-|---2-2--------5-|-5------5---5s7-|
|-----2-2--------5-|-5------5-7-5s7-|---2-2--------5-|-5------5-7-5s7-|
|-----0-0-3-3----3-|-3-0-0----7-----|---0-0-3-3----3-|-3-0-0----7-----|
|---------3-3------|---0-0----------|-------3-3------|---0-0----------|


    A   F5     C     D5   (D5V)       A   F5     C     D5   (D5V)
  E E E E Q  E E   E E Q  E E E E   E E E E Q  E E   E E Q  E E E E
|----------------|----------------|----------------|----------------|
|---2-2--------5-|-5--------------|---2-2--------5-|-5--------------|
|---2-2--------5-|-5------5---5s7-|---2-2--------5-|-5------5---5s7-|
|---2-2--------5-|-5------5-7-5s7-|---2-2--------5-|-5------5-7-5s7-|
|---0-0-3-3----3-|-3-0-0----7-----|---0-0-3-3----3-|-3-0-0----7-----|
|-------3-3------|---0-0----------|-------3-3------|---0-0----------|
|
| E E E E Q  E E   E E Q  E E E E   E E E E Q  E E   E E Q  E E E E
|----------------|----------------|----------------|----------------|
|---2-2--------5-|-5--------------|---2-2--------5-|-5--------------|
|---2-2--------5-|-5------5---5s7-|---2-2--------5-|-5------5---5s7-|
|---2-2--------5-|-5------5-7-5s7-|---2-2--------5-|-5------5-7-5s7-|
|---0-0-3-3----3-|-3-0-0----7-----|---0-0-3-3----3-|-3-0-0----7-----|
|-------3-3------|---0-0----------|-------3-3------|---0-0----------|


                              H.=H   Q=78
  A5   D5(typeF5(type 2C5     D5(type 2)
  Q.   E +Q   Q    +E  E +Q   H      +W           +W
|----------------|-----------------|------------|--------|
|----------------|-----------------|------------|--------|
|-2--------------|-----5-(5)-------|------------|--------|
|-2----0-(0)--3--|-(3)-5-(5)--0----|-(0)--------|-(0)----|
|-0----0-(0)--3--|-(3)-3-(3)--0----|-(0)--------|-(0)----|
|------0-(0)--3--|-(3)--------0----|-(0)--------|-(0)----|
|
| Q.   E +Q   Q    +E  E +Q   H      +W           +W
|----------------|-----------------|------------|--------|
|----------------|-----------------|------------|--------|
|-2--------------|-----5-(5)-------|------------|--------|
|-2----0-(0)--3--|-(3)-5-(5)--0----|-(0)--------|-(0)----|
|-0----0-(0)--3--|-(3)-3-(3)--0----|-(0)--------|-(0)----|
|------0-(0)--3--|-(3)--------0----|-(0)--------|-(0)----|


Begin to Fade

  +W           +W           +W
|------------|------------|------------|
|------------|------------|------------|
|------------|------------|------------|
|-(0)--------|-(0)--------|-(0)--------|
|-(0)--------|-(0)--------|-(0)--------|
|-(0)--------|-(0)--------|-(0)--------|
|
| +W           +W           +W
|------------|------------|------------|
|------------|------------|------------|
|------------|------------|------------|
|-(0)--------|-(0)--------|-(0)--------|
|-(0)--------|-(0)--------|-(0)--------|
|-(0)--------|-(0)--------|-(0)--------|


  +W           +W           +W           +W
|------------|------------|------------|--------*|
|------------|------------|------------|--------*|
|------------|------------|------------|--------*|
|-(0)--------|-(0)--------|-(0)--------|-(0)----*|
|-(0)--------|-(0)--------|-(0)--------|-(0)----*|
|-(0)--------|-(0)--------|-(0)--------|-(0)----*|
|
| +W           +W           +W           +W
|------------|------------|------------|--------*|
|------------|------------|------------|--------*|
|------------|------------|------------|--------*|
|-(0)--------|-(0)--------|-(0)--------|-(0)----*|
|-(0)--------|-(0)--------|-(0)--------|-(0)----*|
|-(0)--------|-(0)--------|-(0)--------|-(0)----*|


Duration Legend
---------------
W - whole; H - half; Q - quarter; E - 8th; S - 16th; T - 32nd; X - 64th; a - acciaccatura
+ - note tied to previous; . - note dotted; .. - note double dotted
Uncapitalized letters represent notes that are staccato (1/2 duration)
Irregular groupings are notated above the duration line
Duration letters will always appear directly above the note/fret number it represents the
duration for.  Duration letters with no fret number below them represent rests.  Multi-
bar rests are notated in the form Wxn, where n is the number of bars to rest for.  Low
melody durations appear below the staff

Tablature Legend
----------------
 h   - hammer-on
 p   - pull-off
 b   - bend
 pb  - pre-bend
 r   - bend release (if no number after the r, then release immediately)
 /\  - slide into or out of (from/to "nowhere")
 s   - legato slide
 S   - shift slide
  - natural harmonic
[n]  - artificial harmonic
n(n) - tapped harmonic
 ~   - vibrato
 tr  - trill
 T   - tap
 TP  - trem. picking
 PM  - palm muting
\n/  - tremolo bar dip; n = amount to dip
 \n  - tremolo bar down
 n/  - tremolo bar up
/n\  - tremolo bar inverted dip
 =   - hold bend; also acts as connecting device for hammers/pulls
 <>  - volume swell (louder/softer)
 x   - on rhythm slash represents muted slash
 o   - on rhythm slash represents single note slash

Misc Legend
-----------
 |  - bar
||  - double bar
||o - repeat start
o|| - repeat end
*|  - double bar (ending)
 :  - bar (freetime)
 $  - Segno
 &  - Coda
Tempo markers -  = BPM(8/16=s8/s16), where s8 = swing 8ths, s16 = swing 16ths


***************************************************************************************
* Generated using Power Tab Editor by Brad Larsen - http://powertab.guitarnetwork.org *
***************************************************************************************
[ Tab from: http://www.guitaretab.com/l/lost-prophets/26118.html ]
Related for Burn, Burn tab