Song name
# A B C D E F G H I J K L M N O P Q R S T U V W X Y Z

Lost Society - Nwl tab

Lost Society - N.W.L

Keys
b = bend
r = release
\ = slide up neck 
/ = slide down neck
h = hammer-on
p = pull-off
~ = hold note
w = whammy bar
v = vibrato
t = trill (very fast hammer-ons)


(o:oo-o:48)
Arttu  Main riff(P.M----------)  
E-------------------------------------------------------------------|
H-------------------------------------------------------------------|
G-------------------------------------------------------------------|
D-------------------------------------------------------------------|
A---1p0-1p0--------5-4-3--------------------------------------------|
E--0--------0-0-0--3-2-1--------------------------------------------|


Samy                 2X
E-------------------------------------------------------------------|
H-------------------------------------------------------------------|
G--9~---9/7~-7/6~-6/4~---------------(3)Squeal----------------------|
D-------------------------------------------------------------------|
A--7~---7/5~-5/4~-4/2~----------------------------------------------|
E-------------------------------------------------------------------|



Samy                             2X     Samy&Arttu        Main riff 2     (0:52-1:17)
E-----------------------------------|-----------------------------------------------|
H-----------------------------------|-----------------------------------------------|
G-----------------------------------|-----------------------------------------------|
D-----------------------------------|----------------5---------------------7-6------|
A-----------------------------------|--7-7-7-7-7-7-----7-5-----7-7-7-7-7-7-5-4------|
E--000 000 000 000 000 000 000 000--|00--------------------7-00---------------------|


Samy&Arttu Verse                                   3X
E----------------------------------------------------------------------|
H----------------------------------------------------------------------|
G----------------------------------------------------------------------|
D----3-------------3\4-------3-------------3\4-------------------------|
A----1-------------1\2-5/4---1-------------1\2-5/4-----------2-2-2-2---|
E------0-0-0-0-0-0-----3/2-----000-000-000-----3/2-----------0-0-0-0---|


Main Riff 2

Main Riff 1 
 
End
Tap to rate this tab
# A B C D E F G H I J K L M N O P Q R S T U V W X Y Z