Song name
# A B C D E F G H I J K L M N O P Q R S T U V W X Y Z

Lost Society - Killthose Who Oppose Me tab

Lost Society - Kill(those who oppose me)
Album: Fast Loud Death

Keys
b = bend
r = release
\ = slide up neck
/ = slide down neck
h = hammer-on
p = pull-off
~ = hold note
w = whammy bar
v = vibrato
t = trill (very fast hammer-ons)


  Riff 1 (Chorus)
E-----------------------------------------------------------------------------------------|
H-----------------------------------------------------------------------------------------|
G--2--------------------------------------------------------------------------------------|
D--2--------------------------------------------------------------------------------------|
A--0-0-0-0-0-0-0-0-0-0-0-0-0-0-0-0-0-0-0-0-0-0-0-0-0-0-0-0-0-0-0-0-0-0-0-0-0-0-0-0-0-0----|
E-----------------------------------------------------------------------------------------|
                        Repeat
E-----------------------------|
H-----------------------------|
G-------------------------2---|
D-------------------------2---|
A-3p0-6p0-5p0-3p0-6p0-5p0-0---|
E-----------------------------|

Riff2 (Verse)              4X                                                            
             4X
E-----------------------------------|-------------------------------------------------------------------|
H-----------------------------------|-------------------------------------------------------------------|
G---2-------2-------------2---------|-------------------------------------------------------------------|
D---2-----3-2-------------2---------|----4----------------------------5/--------------------------------|
A---0-----1-0-1p0-3p0-1p0-0---------|----2-2-2-2-2-2-2-2-2-2-2-2-2-2\-3/--2-2-2-2-2-2-2-2-2p4-2p5-2p4---|
E-----------------------------------|-------------------------------------------------------------------|

E---------------------------------------------------------------------------------------------------|
H---------------------------------------------------------------------------------------------------|
G---2---------------------------------------------------------------2-------------------------2~----|
D---2---------------------------------------------------------------2-------------------------2~----|
A---0-0-0-0-0-0-0-0-0-0-0-0-0-1p0-0-0-0-0-0-0-0-0-0-0-0-1p0-3p0-1p0-0-0-0-0-0-0-0-0-0-0-0-0-0-0~----|
E---------------------------------------------------------------------------------------------------|

E------------------------------|
H------------------------------|
G-----(3)Squeal----------------|
D------------------------------|
A------------------------------|
E------------------------------|


(Chorus)


 Riff3  Verse2
E----------------------------------------------------------------------------------------------------|
H----------------------------------------------------------------------------------------------------|
G---2-------------------------------------------------2-----------------2----------------------------|
D---2-------------------------------------------------2-----------------2----------------------------|
A---0-000-000-000-000-1p0-000-000-000-000-1p0-3p0-1p0-0-000-000-000-000-0----------------------------|
E----------------------------------------------------------------------------------------------------|
                                                                   4X
E---------------------------------------------------------------------|
H---------------------------------------------------------------------|
G---------------------------------------------------------------------|
D---4----------------------------5/-----------------------------------|
A---2-2-2-2-2-2-2-2-2-2-2-2-2-2\-3/--2-2-2-2-2-2-2-2-2p4-2p5-2p4------|
E---------------------------------------------------------------------|

E------------------------------------------------------------------------------------------------------|
H------------------------------------------------------------------------------------------------------|
G-2---------------------------------------------------------------2-----------------------------2~-----|
D-2---------------------------------------------------------------2-----------------------------2~-----|
A-0-0-0-0-0-0-0-0-0-0-0-0-0-1p0-0-0-0-0-0-0-0-0-0-0-0-1p0-3p0-1p0-0-0-0-0-0-0-0-0-0-0-0-0-0-0-0-0~-----|
E------------------------------------------------------------------------------------------------------|

E------------------------------|
H------------------------------|
G-----(3)Squeal----------------|
D------------------------------|
A------------------------------|
E------------------------------|


Chorus


Riff4                                                                                    
          2X
E-----------------------------------------------------------------------------------------------------|
H-----------------------------------------------------------------------------------------------------|
G-------------2--------------------------------------------------2------------------------------------|
D-------------2----------------------------------------------5---2------------------------------------|
A-3-3-3-5-5-5-0-0-0-0-0-0-0-0-0-0-0-0-0-0-0-0-0-0-0--3-3-3-5-3-5-0-0-0-0-0-0-0-0-0-0-0-0-0-0-0-0-0-0--|
E-1-1-1-3-3-3----------------------------------------1-1-1-3---3--------------------------------------|
E-----------------------------------------------------------------------------------------------------|
Last time
E-------------------|
H-------------------|
G-------------2~----|
D-------------2~----|
A-3-3-3-5-5-5-0~----|
E-1-1-1-3-3-3-------|


Solo(verse riff)

Chorus

End
Tap to rate this tab
# A B C D E F G H I J K L M N O P Q R S T U V W X Y Z