Song name
# A B C D E F G H I J K L M N O P Q R S T U V W X Y Z

Lost Souls - Spit Me Outtill I Die tab

This Song Is My Bands Song So If U Like It Leave A Comment Thanks!!!




Band:Lost Souls 
Song:Spit Me Out...Til I Die
Album:Burning Flag For Forgotten Heros,2007
Tabbed By:Your555Im666
Lost Souls Lead Guitarest
The Rithium Guitarest Is 666isgod is his username if u Want Rithium Guitar
The Bassest Is Lostsoulier is his username if u want Bass Tab

Tuning: (CEDFAe)

Intro Riff:(Same As The Riff,Verse And Outro)

|-----------------------------|---------------------------|
|-----------------------------|---------------------------|
|-----------------------------|---------------------------|
|-----------------------------|---------------------------| X2
|-----------------------999999|---------------------999999|
|-000000-444444-666666-777777|-000000-444444-666666-777777|

Verse:

|----------------------------|----------------------------|
|----------------------------|----------------------------|
|----------------------------|----------------------------|
|----------------------------|----------------------------| X2
|----------------------999999|----------------------999999|
|-000000-444444-666666-777777|-000000-444444-666666-999999|

Chorus:

|-----------------------------------|---------------------------------|
|-----------------------------------|---------------------------------|
|-----------------------------------|---------------------------------|
|---------------3h5-------------3h5-|---------------3h5---------------|
|------------------333333-555555----|-------------------333333-555555-|
|-333333-555555---------------------|-333333-555555-------------------|

Solo:
          X2                             X2
|-10h12-9h11-8-9-12-15|-12-------------------------------12--|
|---------------------|----13-------------------------13-----|
|---------------------|-------14-------------------14--------|
|---------------------|----------15-------------15-----------|
|---------------------|-------------16-------16--------------|
|---------------------|----------------17-17-----------------|

|-12h15-------------------------------------------------------12h15--|
|-------13h16-------------------------------------------13h16--------|
|-------------14h17-------------------------------14h17--------------| 
|-------------------15h18-------------------15h18--------------------|
|-------------------------16h19-------16h19--------------------------|
|------------------------------17h20---------------------------------|

|-12(15)-------------------------------------------------------12(15)--|
|-------13(16)-------------------------------------------13(16)--------|
|--------------14(17)------------------------------14(17)--------------|
|--------------------15(18)------------------15(18)--------------------| 
|--------------------------16(19)------16(19)--------------------------|
|--------------------------------17(20)--------------------------------|

The Way It's Played:
Intro
Verse
Chorus
Verse II
Chorus
Solos
Chorus X3
Outro

Thats Its Injoy Leave A Comment If U Like It Thanks!!!


  
Tap to rate this tab
# A B C D E F G H I J K L M N O P Q R S T U V W X Y Z