Song name
# A B C D E F G H I J K L M N O P Q R S T U V W X Y Z

Lost Souls - 3rd Degree Burn tab

This Is A Good Song From Us.

Band: Lost Souls
Song: 3rd Degree Burn
Album: Burning Flag For Forgotten Heros,2007
Tabbed By: your555im666


Tuning: (EADGBe)

Guitar 1=Lead, Guitar 2=Rythem 


Guitar 1:


Intro Riff:


|----------------------------------|
|----------------------------------|
|----------------------------------| X4
|----------------------------------|
|-----------------7---9------------|
|-0-0-0-0-0-0-2-3-5-6-7-0-0-0-0-0-0|

Verse Riff:

|--------------------------------|
|--------------------------------|
|--------------------------------|X8
|------------------------5-5-5-5-|
|-4-4-4-4-6-6-6-6----------------|
|-----------------5-5-5-5--------|

Chorus:

|----------------------------------|-0h1-------------0h1|
|----------------------------------|-----0h2-----0h2----|
|----------------------------------|---------0h0--------|
|----------------------------------|--------------------|
|-----------------7/-/9------------|--------------------|
|-0-0-0-0-0-0-2-3-5/6/7-0-0-0-0-0-0|--------------------|
                X4                       X2



Guitar 2:

Intro Riff:

|----------------------------------|
|----------------------------------|
|----------------------------------|
|-0-0-0-0-0-0-2-3-7-6-9-0-0-0-0-0-0|X4
|-0-0-0-0-0-0-2-3-7-6-9-0-0-0-0-0-0|
|-0-0-0-0-0-0-2-3-5-6-7-0-0-0-0-0-0|


Verse Riff:

|--------------------------------|
|--------------------------------|
|-------------------------5-5-5-5|
|-6-6-6-6-8-8-8-8---------5-5-5-5| X8
|-4-4-4-4-6-6-6-6-5-5-5-5--------|
|-----------------5-5-5-5--------|

Chorus:

|----------------------------------|-0h1-------------0h1|
|----------------------------------|-----0h2-----0h2----|
|----------------------------------|---------0h0--------|
|-0-0-0-0-0-0-2-3-7/6/9-0-0-0-0-0-0|--------------------|
|-0-0-0-0-0-0-2-3-7/6/9-0-0-0-0-0-0|--------------------|
|-0-0-0-0-0-0-2-3-5-6-7-0-0-0-0-0-0|--------------------|
           X4                               X2

------------------------------------------
The Way It's Played:
Intro
Verse I
Chorus
Verse II
Chorus X2
Verse III
Chorus X3
Verse IV
Chorus X4
Outro (Intro)

--------------------------------------------
     
                     Time: 6 minutes And 36 seconds

---------------------------------------------




Tap to rate this tab
 
# A B C D E F G H I J K L M N O P Q R S T U V W X Y Z