Song name
# A B C D E F G H I J K L M N O P Q R S T U V W X Y Z

Lost Souls - Operation Underground tab

Dis Is ur 1st song since we changed da music from Black Metal 2 Grunge/Punk Hope u injoy.

Band: Lost Souls
Song: Operation Underground
Album: Unknown



Tuning: (EADGBe)



Intro:




|--------------------------------|--------------------------------|
|--------------------------------|--------------------------------|
|-2-2-2-2/5-5-5-5/7-7-7-7/9-9-9-9|--------------------------------|
|-2-2-2-2/5-5-5-5/7-7-7-7/9-9-9-9|-9-9-9-9/7-7-7-7/5-5-5-5/2-2-2-2| X2
|-0-0-0-0/3-3-3-3/5-5-5-5/7-7-7-7|-9-9-9-9/7-7-7-7/5-5-5-5/2-2-2-2|
|--------------------------------|-7-7-7-7/5-5-5-5/3-3-3-3/0-0-0-0|


Verse:


|---------------------------------|---------------------------------|
|---------------------------------|---------------------------------|
|--2-2-2-2/5-5-5-5/7-7-7-7/9-9-9-9|---------------------------------|
|--2-2-2-2/5-5-5-5/7-7-7-7/9-9-9-9|--9-9-9-9/7-7-7-7/5-5-5-5/2-2-2-2|X2
|--0-0-0-0/3-3-3-3/5-5-5-5/7-7-7-7|--9-9-9-9/7-7-7-7/5-5-5-5/2-2-2-2|
|---------------------------------|--7-7-7-7/5-5-5-5/3-3-3-3/0-0-0-0|
P.M-----------------------------------------------------------------



Chorus:(Same As Intro)


Solo:


|-------------------------------------------------|
|--10-10-10-10/13-13-13-13/15-15-15-15/17-17-17-17|
|-------------------------------------------------|
|-------------------------------------------------|
|-------------------------------------------------|
|-------------------------------------------------|

|---------------------------------------------|
|---------------------------------------------|
|--16-16-16-16/14-14-14-14/12-12-12-12/9-9-9-9|
|---------------------------------------------|
|---------------------------------------------|
|---------------------------------------------|




Interlude:


|------------------------------------------------|
|------------------------------------------------|
|------------------------------------------------|
|------------------------------------------------|
|-12-12-12-12/15-15-15-15/17-17-17-17/19-19-19-19|
|------------------------------------------------|

|------------------------------------------------|
|------------------------------------------------|
|------------------------------------------------|
|------------------------------------------------|
|------------------------------------------------|
|-19-19-19-19/17-17-17-17/15-15-15-15/12-12-12-12|


-----------------------------------
The Way It's Played:
Intro
Verse
Chorus
Verse
Chorus
Solo
Intro X4
Chorus X2
Outro(Intro)
----------------------------------
Legend:
P.M=Palm Mute
/=Slide Up&Down


Tap to rate this tab
# A B C D E F G H I J K L M N O P Q R S T U V W X Y Z