Song name
# A B C D E F G H I J K L M N O P Q R S T U V W X Y Z

Lost Weekend Western Swing Band - In The Shadow Of The Valley tab

########################################
## This tab is under production and   ##
## therefore not completed. Thank You ##
########################################

------------------------------PLEASE NOTE------------------------------------
This file is the author's own work and represents their interpretation of the
song. You may only use this file for private study, scholarship, or research. Public use 
of this file requires agreement of author.
-----------------------------------------------------------------------------

From: Kasper Jensen
Date: 10/5/2011 12:23 PM

Standard tuning - Acoustic Guitar preferred

"In The Shadow Of The Valley"

IMPORTANT: Play this pattern in rhythm ->47<-

Intro:

     .    .     .     .     .     .     .
E-------------------------------------------|
B-------------------------------------------|
G------3-----3-----3-----3-----3-----3------|
D------5-----5-----5-----5-----5-----5--(8)-|
A---6-----------6-----------6------------6--|
E---------6-----------6-----------6---------|
                      .
"In the shadow of the valley
I would like to settle down
Wide open space"

    .     .     .     .     .     .     .     .     .     .     .     .
E--------------------------------------------------------------------------|
B--------------------------------------------------------------------------|
G------3-----3-----3-----3-----3-----3-----3-----3-----3-----3-----3-----3-|
D------5-----5-----5-----5-----5-----5-----5-----5-----5-----5-----5-----5-|
A---6-----------6-----------6-----------6-----------6-----------6----------|
E---------6-----------6-----------6-----------6-----------6-----------6----|

"Wind on my face"

    .     .     .     .     .     .     .     .
E-----------------------------------------------|
B-----------------------------------------------|
G------1-----1-----1-----1-----1-----1----------|
D------3-----3-----3-----3-----3-----3----------|
A-----------------------------------------------|
E---4-----4-----4-----4-----4-----4-------------|
Tap to rate this tab
# A B C D E F G H I J K L M N O P Q R S T U V W X Y Z