Lost - Damn Baby tab

-------------------------------------------------------------------------------
			     LOST? - DAMN! Baby
-------------------------------------------------------------------------------
Tabbed by: P Bilton
Email: losttour@hotmail.com

Tuning: DADGBE

INTRO

e|--------------------------------------------------------------------------|
B|--------------------------------------------------------------------------|
G|--55555555----------------------------------------------------------------|
D|--55555555-66666666-11111111-55555555----------X2-------------------------|
A|--33333333-66666666-11111111-55555555-------------------------------------|
D|-----------66666666-11111111-55555555-------------------------------------|

VERSE (silent for 1st half, comes in 2nd half)
e|--------------------------------------------------------------------------|
B|--------------------------------------------------------------------------|
G|--12-12---12-12---12--13-13--13-13--13--12-12--12-12--12--10-10-10-10--10-|
D|--------------------------------------------------------------------------|
A|---10-10--10-10---10--11-11--11-11--11--10-10--10-10---10--8-8---8-8---8--|
D|--------------------------------------------------------------------------|

CHORUS (part 1)
e|-------------------------------------------------------------------------|
B|-------------------------------------------------------------------------|
G|--55555555---------------------------------------------------------------|
D|--55555555-66666666-11111111-55555555--------X2--------------------------|
A|--33333333-66666666-11111111-55555555------------------------------------|
D|-----------66666666-11111111-55555555------------------------------------|

CHORUS (part 2 - damn babys)
e|--------------------------------------------------------------------------|
B|--------------------------------------------------------------------------|
G|-12----13------12-----10--------------------------------------------------|
D|----X8-----X8-----X8-----X8-----------------------------------------------|
A|-10----11------10------8--------------------------------------------------|
D|--------------------------------------------------------------------------|

SOLO (guitar 1)
e|----------------------------------------------------------------------------|
B|----------------------------------------------------------------------------|
G|-----------88777----10-10-8-8-8----88777------------------------------------|
D|--10-10-10-------888------------888------8>10-8>10-12-10-12-13-13-----X2----|
A|----------------------------------------------------------------------------|
D|----------------------------------------------------------------------------|

SOLO (guitar 2)
e|-------------------------------------------------------------------6-8----|
B|--4-4-4-8-8-6-6-6--4-4-4-9-9-8-8-8--4-4-4-8-8-6-6-6--4>6-4>6-8-6-8--------|
G|--------------------------------------------------------------------------|
D|------------------------------------------------------------------------X2|
A|--------------------------------------------------------------------------|
D|--------------------------------------------------------------------------|

LAST CHORUS FINISHES ON (AFTER THE VERY LAST 'DAMN BABY')
e|--------------------------------------------------------------------------|
B|--------------------------------------------------------------------------|
G|--------------------------------------------------------------------------|
D|---6666666666666666-88888888-99999999-10----------------------------------|
A|---6666666666666666-88888888-99999999-10----------------------------------|
D|---6666666666666666-88888888-99999999-10----------------------------------|
Tap to rate this tab
 
# A B C D E F G H I J K L M N O P Q R S T U V W X Y Z